» » »

Oasis, Don't Look Back In Anger Tabs (ver.8)

Artists:  A B C D E F G H I J K L M N O P Q R S T U V W X Y Z # 

Don't Look Back In Anger Tabs (ver.8)

Oasis Tabs
 Rating:
4/5 (4 votes)
Don't Look Back In Anger lessons Tabs too difficult? Try these video lessons and learn fast
                oasis - dont look back in anger


------------------------------------------------|
------------------------------------------------|
--7b9b7-7b9b7-7b9b7-5-----5-5-5h7---5-7h5-------|
---------------------5-5h7-------5h7------------|
------------------------------------------------|
------------------------------------------------|

------------------------------------------------|
------------------------------------------------|
--7b9b7-7b9b7-7b9b7-5-5-5-5h7-5-----------------|
----------------------5-5-5h7-5-5----5----------|
----------------------------------5h7-5-5h7h5/3-|
------------------------------------------------|

---------------------------------------8-8h10-8-8--|
-------------------------------8-8-8h10------------|
--------------------5-5h7-7-7/9--------------------|
---------------5-5h7-------------------------------|
------3-3h5-5/7------------------------------------|
-3-3h5---------------------------------------------|


-----8----8----8----8----8----8----8-8h10-8-8-----8----8----8----8-8--|
-8h10-8h10-8h10-8h10-8h10-8h10-8h10-----------8h10-8h10-8h10-8h10-----|
----------------------------------------------------------------------|
----------------------------------------------------------------------|
----------------------------------------------------------------------|
----------------------------------------------------------------------|

------------------------------------------------------------------------|
-17--17--17--17--17--17--17--17-----------------------------------------|
-19b-19b-19b-19b-19b-19b-19b-19b-19b21b19----17-19h17--19b21b19-17h19---|
------------------------------------------19----------------------------|
------------------------------------------------------------------------|
------------------------------------------------------------------------|

---------------------------------------|
-17--17--17--17--17--17--17------------|let ring
-19b-19b-19b-19b-19b-19b-19b-----------|let ring
---------------------------------------|
---------------------------------------|
---------------------------------------|


thats it. sounds about right!
snake
            
Submit corrections

comments powered by Disqus
↑ Back to top | Oasis Tabs for Don't Look Back In Anger. Lyrics for acoustic guitar and electric guitar. Tablatures and chords are parodies/interpretations of the original songs. You may use it for private study, scholarship, research or language learning purposes only