» » »

Oasis, Don't Look Back In Anger Tabs (ver.9)

Artists:  A B C D E F G H I J K L M N O P Q R S T U V W X Y Z # 

Don't Look Back In Anger Tabs (ver.9)

Oasis Tabs
Rating:
0/5 (0 votes)
Hard to play? Try these video lessons and learn fast.
                This is a very hard solo put keep on practising and you will be great. hope you enjoy


Tab Key
-------
b = bend (7b8 means bend the string at the 7th fret to make the note the
string would make if played at the 8th fret with no bend)
r = release bend
h = hammer on
p = pull off
s = slide

e----------------------------------------------8-------------|
B----------------------------------------------8-------------|
G----5--7b8r7-7b8r7-7b8r7--5-----------5---8h9----5-----5----|
D--7--------------------------5---5h7----------------7-------|
A------------------------------------------------------------|
E------------------------------------------------------------|


e---------------------------------------------------------------------------|
B---------------------------------------------------------------------------|
G--7-5--7b8r7-7b8r7-7b8r7--5-----5---5--------------------------------------|
D-----------------------------5--5h7-5------5--------------------------5--7-|
A---------------------------------------5h7---7p5-3----------3--5--5s7------|
E------------------------------------------------------1--5-----------------|


e--------------------------------------8--8--8h10--8-------8------8------8--|
B----------------------------8--8--10-----------------8h10---8h10---8h10----|
G-5--5--7b9--7--5-----5---s9------------------------------------------------|
D------------------7--------------------------------------------------------|
A---------------------------------------------------------------------------|
E---------------------------------------------------------------------------|


e------8------8--8h10p8------8------8------8-------12----12----12----12-----|
B-8h10---8h10-----------8h10---8h10---8h10---8h10--15b17-15b17-15b17-15b17--|
G---------------------------------------------------------------------------|
D---------------------------------------------------------------------------|
A---------------------------------------------------------------------------|
E---------------------------------------------------------------------------|


e-12----12-----------------------------------17---------------------|
B-15b17-15b17--15b17r15--13----13--15--15b17---b17r15--15-17-15-17--|
G---------------------------14--------------------------------------|
D-------------------------------------------------------------------|
A-------------------------------------------------------------------|
E-------------------------------------------------------------------|


e--------12-12-------12-12-------12-12-------12-12-------12-12--12------|
B--15b17-------15b17-------15b17-------15b17-------15b17--------15b17---|
G-----------------------------------------------------------------------|
D-----------------------------------------------------------------------|
A-----------------------------------------------------------------------|
E-----------------------------------------------------------------------|
            

comments powered by Disqus
↑ Back to top | Oasis Tabs for Don't Look Back In Anger. Lyrics for acoustic guitar and electric guitar. Tablatures and chords are parodies/interpretations of the original songs. You may use it for private study, scholarship, research or language learning purposes only