» » »

Oasis, Dont Look Back Tabs (ver.1)

Artists:  A B C D E F G H I J K L M N O P Q R S T U V W X Y Z # 

Dont Look Back Tabs (ver.1)

Oasis Tabs
Rating:
0/5 (0 votes)
Hard to play? Try these video lessons and learn fast.
                Performed by:Oasis
C                G            Am            E7              F     G
Slip inside the eye of your mind don't you know you might find
                      C          Am G
A better place to play =20

C             G          Am               E7                F     G  =20
You say that you never been but all the things that you've seen
              C                 Am G
Slowly fade away=0A
F                  Fm             C
So I start a revolution from my bed
F                 Fm                        C
Cos you said the brains I have went to my head
F                 Fm                C=20
Step outside the summertime's in bloom
G                               G#/E7=20
Stand up beside the fire place take that look from off your face
Am                   G                   F              G=20
Cos you ain't never gonna burn my heart out______________=0A
C    G         Am       E7             F              G        C  Am G =20
So Sally can wait she knows it's too late as we're walking on by
     C     G     Am  E7               F           G              C   =20
Her soul slides away  but don't look back in anger I heard you say=0A
SOLO:
E|----8----11-----------------------------------------------------------
A|---------------8----10------------------------------------------------
D|--------------------------8----10-------------------------------------
G|-------------------------------------8----10--------------------------
B|-------------------------------------------------8\11-----------------
E|---------------------------------------------------------8------------
          =20
E|----------------------------------------------------------------------
A|------------------------------------------------10-----8--------------
D|-------------------------------------10----8--------------------------
G|--------------------------10----8-------------------------------------
B|---------------11----8------------------------------------------------
E|----11----8-----------------------------------------------------------=0A

Same chords:
Take me to the place where you go where nobody knows=20
if it's nigth or day
Please don't put your life in the hands of a rock 'n roll band
Who'll throw it out away=0A
Gonna start a revolutio from my bed
Cos you said the brains I have went to my head
Step outside the summertime's in bloom
Stand up beside the fire place take that look from off your face
Cos you ain't never gonna burn my heart out______________=0A
So Sally can wait she knows it's too late as we're walking on by
Her soul slides away but don't look back in anger I heard you say=0A
SOLO:
E|-------------------------------------------------------------------
A|-------------------------------------------------------------------
D|-------------------------------------------------------------------
G|----10--10--10--10--9--9\10--9-------------------10--9-------------
B|--------------------------------9--11--9--11--9--------------------
E|-------------------------------------------------------------------=0A
E|----------------------------------------------11--9--9--11---------
A|---------------------------------------10--9----------------9--10--
D|--------------------------------10--9------------------------------
G|----10--10--10--10--9--9\10--9-------------------------------------
B|-------------------------------------------------------------------
E|-------------------------------------------------------------------=0A
E|-------------------------------------------------------------------
A|-------------------------------------------------------------------
D|----9--10----------------------------------------------------------
G|-----------9--10-----------------------------10--9--9--10--9--10---
B|-----------------9--10----------------10--9------------------------
E|------------------------9--10--10--9-------------------------------=0A
E|-------------------------------------------------------------------
A|-------------------------------------------------------------------
D|-------------------------------------------------------------------
G|----9--9--10--9------------------------------------------10--10--10
B|---------------9--11--9--11--9--11--9--11--9--11--9--11------------
E|-------------------------------------------------------------------=0A
E|-------------------------------------------------------------------
A|-------------------------------------------------------------------
D|------------------10--9--9\10--------------------------------------
G|----10--9--10--9---------------9--10--9--10--9--10--9--10--9---10--
B|-------------------------------------------------------------------
E|-------------------------------------------------------------------=0A
E|-------------------------------------------------------------------
A|-------------------------------------------------------------------
D|-------------------------------------------------------------------
G|----9--10--10--10--10--10--10--10-------------------------------------------------
B|-------------------------------------------------------------------
E|-------------------------------------------------------------------=0A
So Sally can wait she knows it's too late as we're walking on by
Her soul slides away......
F
But don't look back in anger=20
Fm
Don't look back in anger
            C   G Am F Fm
I heard you say
               C
At least not today=0A

Special Chords:
G#/E7=3D 420100
E7=3D020100
C=3D332010=0A
=0A
            

comments powered by Disqus
↑ Back to top | Oasis Tabs for Dont Look Back. Lyrics for acoustic guitar and electric guitar. Tablatures and chords are parodies/interpretations of the original songs. You may use it for private study, scholarship, research or language learning purposes only