» » »

Don't Go Away Tabs (ver.2)

Artists:  A B C D E F G H I J K L M N O P Q R S T U V W X Y Z # 

Don't Go Away Tabs (ver.2)

Oasis
Rating:
0/5 (0 votes)

Hard to play? Try these video lessons and learn fast.
                Oasis
Don’t Go Away
Be Here Now

B.H.N is a great album that continues the top work from definitely Maybe and Morning Glory.
Don’t Go Away is track 8 on the album and is absolutely brilliant.

Intro
a/ 4 stick taps.
G-------------------------------------------|
D--------5h7~-----9-7-5-7-5-----------------|
A---5h7---------------------7~---x-x-7b-5---|
E-----------------------------------------5-|

Repeat that then:
D-----7----|
A----------|
E---5----5-|

Verse1
Am               
Cold and frosty morning,
            G 
And there’s not a lot to say,
          Fmaj7			G
About the things caught in my mind.
Am                  
As the day was dawning,
   G
My plane flew away,
		    Fmaj7			    G
With all the things caught in my mind.

Bridge
Dm
I don’t want to be there when you’re,
F
Coming down.
Dm
I don’t want to be there when you,
F              
Hit the ground.

Gtr2 during bridge
e---------------3-----------------3----|
B----------1--------1--------1---------|
G----4------------------4--------------|
D--------------------------------------|

Chorus
	        C
So don’t go away,
	        G
Say what you’ll say
	        Am
Say that you’ll stay
		   G
Forever and a day
			    F
In the time of my life
	 		   G
Cos’ I need more time
			 Am
Yes I need more time
 	    G   G		F
Just to make things right

Gtr2 link (gtr1 F-chord)
E-------------------------|
B---5~--------5-----------|
G----------------5--------|
D-------------------7-----|

Verse2
*** my situation, 
And the games I have to play,
With all the things caught in my mind.
*** my education,
I can’t find the words to say
About the things caught in my mind

Bridge

Chorus

Interlude
F
You and me what’s going on

B---------------5-----------------|
G-------5---7-5---7-5---5-7-5~----|
D---5h7---------------7--------7--|
A---------------------------------|

F						  Bm
All we seem to know is how to show, 
Bm
The feelings that are wrong.

B---------------5---------|
G-------5---7-5---7-5---5-|
D---5h7---------------7---|

E--------------8-10--8----|
B----8----10--------------|
G-9-----------------------|

E--------8-8-----8—8b-(random bends etc.)
B---8h10----8h10----------|
G-------------------------|

Repeat Chorus twice then:
			 Am
Yes I need more time
 	    G   G		F
Just to make things right
			 Am
Yes I need more time
 	    G   G		F
Just to make things right
			 Am
Yes I need more time
 	    G   G		F
Just to make things right
	       C
So don’t go away

Outro
	        C
	        G
	        Am
		   G
		   F
	 	   G
		   Am
 	    G   G		F
This just the chorus without lyrics.

Outro Gtr2
e---------------3-----------------3----|
B----------1--------1--------1---------|
G----4------------------4--------------|
D--------------------------------------|

That’s the end of one of the highlights of Be Here Now. I will tab more Oasis stuff but also check out my Marilyn Manson tabs if you need to. So-long.
            
Hard to play? Try these video lessons and learn fast. | Correct




comments powered by Disqus
↑ Back to top | Tablatures and chords are parodies/interpretations of the original songs. You may use it for private study, scholarship, research or language learning purposes only