» » »

Oasis, Don't Go Away Tabs (ver.7)

Artists:  A B C D E F G H I J K L M N O P Q R S T U V W X Y Z # 

Don't Go Away Tabs (ver.7)

Oasis Tabs
Rating:
0/5 (0 votes)
Don't Go Away lessons Tabs too difficult? Try these video lessons and learn fast
                -------------------------------------------------------------------------------
                             Don't Go Away (Outro) - oasis
-------------------------------------------------------------------------------

Tuning: Standard Tuning

e|-3------3------3----|-3------3------3----|-3------3------3-----|-------3--------3----|
B|--------------------|--------------------|---------------------|-0-----------0-------|
G|----5------5------5-|----5------5------5-|----5------5------5--|----5-----5--------5-|
D|--------------------|--------------------|---------------------|---------------------|
A|--------------------|--------------------|---------------------|---------------------|
E|--------------------|--------------------|---------------------|---------------------|

e|-------3--------3----|-------3--------3----|-------3-----------3-|-------3-------3-|
B|-0-----------0-------|-0-----------0-------|-0-----------0-------|-0--------0------|
G|----5-----5--------5-|----5-----5--------5-|----5-----5-----5----|----5--------5---|
D|---------------------|---------------------|---------------------|-----------------|
A|---------------------|---------------------|---------------------|-----------------|
E|---------------------|---------------------|---------------------|-----------------|

e|-------3-----------3-|-------3--------3-------|-------3-----------3-|-------3--------3-------|
B|-0-----------0-------|-0--------0--------0----|-0-----------0-------|-0--------0--------0----|
G|----5-----5-----5----|----5--------5--------5-|----5-----5-----5----|----5--------5--------5-|
D|----------------------------------------------|---------------------|------------------------|
A|---------------------|------------------------|---------------------|------------------------|
E|---------------------|------------------------|---------------------|------------------------|

e|-------3--------3----|-3----------------------|
B|-0--------0--------0-|-0----------------------|
G|----5--------5-------|-5----------------------|
D|---------------------|------------------------|
A|---------------------|------------------------|
E|---------------------|------------------------|

This is my first contribution and the first song that I ear-transcribed.
Enjoy it!
            

comments powered by Disqus
↑ Back to top | Oasis Tabs for Don't Go Away. Lyrics for acoustic guitar and electric guitar. Tablatures and chords are parodies/interpretations of the original songs. You may use it for private study, scholarship, research or language learning purposes only