» » »

Don Look Back In Anger Tabs (ver.1)

Artists:  A B C D E F G H I J K L M N O P Q R S T U V W X Y Z # 

Don Look Back In Anger Tabs (ver.1)

Oasis
Rating:
0/5 (0 votes)

Hard to play? Try these video lessons and learn fast.
                Don't Look Back In Anger
Performed by Oasis
Words and Music by Noel Gallagher

#------------------------------------
#This took me a long ass time. Enjoy.
#Didn't tab for rhythm in some parts 
#because it was getting messy. You can
#figure it out though.
#------------------------------------

Tablature Explanation:
h=hammer on
p= pull off
^= bend
r= release bend
/ or \ = slide

Intro
e------------------|-----------------|-----------------|----------------------|
B--1---1---1---1---|-1---1---------1-|-1---1---1---1---|-1-----1--------------|
G--0---0---0---0---|-2---2-------0---|-0---0---0---0---|-2---0h2-0----------0-|
D--2---2---2---2---|-3---3----2h3----|-2---2---2---2---|-3----------0-0h2-0---|
A----3---3---3---3-|---3----3--------|---3---3---3---3-|---3------------------|
E------------------|-----------------|-----------------|----------------------|

Rhy Fig 1a.
e-----0-00-----3-33-|-----0-00----0-00-|-----1-11----3-33-|-----0---------------------|
B-----1-11-----0-00-|-----1-11----0-00-|-----1-11----3-33-|-----1-----1-1-1-0-0-0-0-0-|
G-----0-00-----0-00-|-----2-22----1-11-|-----2-22----4-44-|-----0-0-0-2-2-2-0-0-0-0-0-|
D---2-2-22--0--0-00-|---2-2-22----2-22-|-----3-33----5-55-|---2-2-0-0-2-2-2-0-0-0-0-0-|
A-3-----------------|-0---------2------|---3-------5------|-3---------0-0-0---2-2-2-2-|
E---------3---------|---------0--------|-1-------3--------|-------------------3-3-3-3-|

Rhy Fig 1b.
e-----0-00-----3-33-|-----0-00----0-00-|-----1------------|-----0---------------------|
B-----1-11-----0-00-|-----1-11----0-00-|---1---1-----3-33-|-----1-----1-1-1-0-0-0-0-0-|
G-----0-00-----0-00-|-----2-22----1-11-|---2----2----4-44-|-----0-0-0-2-2-2-0-0-0-0-0-|
D---2-2-22--0--0-00-|---2-2-22----2-22-|---3---------5-55-|---2-2-0-0-2-2-2-0-0-0-0-0-|
A-3-----------------|-0---------2------|-----------5------|-3---------0-0-0---2-2-2-2-|
E---------3---------|---------0--------|-1-------3--------|-------------------3-3-3-3-|

Rhy Fig 1c.
e-----0-----0-0-0--------|
B-----1-----1-1-1-0-0----|
G-----0-0-0-2-2-2-0-0--5-|
D---2-2-0-0-2-2-2-0-0----|
A-3---------0-0-0---2----|
E-------------------3----|

Interlude
e-----1------1--|---------------------|-----1------1--|-----3------------|
B-----1------1--|---------------------|-----1------1--|-----5-----4/5----|
G-----2------1--|-----5-5-------------|-----2------1--|-----5--5-----5---|
D---------------|---5h7-5-----5-------|---------------|---5----5h7-----5-|
A---3------3----|-3--------5/7--7/5-3-|---3------3----|-3----------------|
E-1------1------|---------------------|-1------1------|------------------|

e-----1------1--|-------------8\-----|-----------------|-----------------|
B-----1------1--|-----8-------8\-----|-----------------|-----------------|
G-----2------1--|-----9----8/9----5--|-----------------|-----------------|
D---------------|-----10-10--------5-|-5---5---5---5---|-6---6---6---6---|
A---3------3----|--10----------------|-5---5---5---5---|-5---5---5---5---|
E-1------1------|-8------------------|-3-3---3---3---3-|---4---4---4---4-|

e----------------|-------------------|-----------------|-------------------|
B----------------|-------------------|-----------------|-----------5-------|
G----------------|-------------------|-----------------|-5--5--7^9---7p5h7-|
D-7---7---5---5--|-3---3---3---3-3/5-|---5-5-5-5-5-5-5-|-5h7---------------|
A-7---7---5---5--|-3---3---3---3-3/5-|---5-5-5-5-5-5-5-|-------------------|
E--5---5---3---3-|--1---1---1--------|-3-3-3-3-3-3-3-3-|-------------------|

Solo 1
e---------------------|----------------|-------------------|
B---------------------|---------8------|-------------------|
G------4-5-7-7^9r7-5--|-5---5/9----9/7-|-5-------5-7---5-7-|
D-----7-------------7-|----------------|------5h7---5h7----|
A---------------------|----------------|-------------------|
E---------------------|----------------|-------------------|

Solo 2
e-----------------------|----------------------------|-----------------------|-----------------------|
B-----------------------|----------------------------|-----------------------|-----------------------|
G-7^8r7-7^8r7-7^8r7-5---|-----5-5--5-7^8-5-5-----7-5-|-7^8r7-7^8r7-7^8r7-5---|--5---5----------------|
D---------------------5-|--5h7--5h7----------7-7-----|---------------------5-|--5h7-5-------5--------|
A-----------------------|----------------------------|-----------------------|-------h7-5/7---7\5-3--|
E-----------------------|----------------------------|-----------------------|-----------------------|

e-------------------------------|------------8-8-8h10-8--|
B-------------------------------|-----8-8-10-------------|
G---------------5-5-7^8r7p5---5-|-7/9--------------------|
D-----------5-7-------------7---|------------------------|
A-----3-5/7---------------------|------------------------|
E-1-5---------------------------|------------------------|

e------8------8------8------8------8-|-8h10p8------8------8------8-8\-0-0-|
B-8h10---8h10---8h10---8h10---8h10---|--------8h10---8h10---8h10---8\-----|
G------------------------------------|------------------------------------|

e-------------------------------------------|----------------------17----------------------|
B-17----17----17----17----17-17-17----17-17-|----------------------------------17-------17-|
G-19^21-19^21-19^21-19^21-------19^21-------|-19^21-17-19-17-19^21----19-19^21----19^21----|

e-----------------------------------------------------------------|------------------|
B-17----17-17-17----17-17-17----17-17-17----17-17-17----17-17-17\-|-Rest one measure-|
G-19^21-------19^21-------19^21-------19^21-------19^21-----------|------------------|

Outro
[whole notes--------------------->]
e-0---------|-1--------|-1--------|---------------------------------|
B-1---------|-1--------|-1--------|---------------------------------|
G-2---------|-2--------|-1--------hold chord for 2 measures---------|
D-2---------|-3--------|-3--------|---------------------------------|
A-0---------|----------|----------|---------------------------------|
E-----------|----------|----------|---------------------------------|

e-----------------------------|-----------------|--------------------|-0--------|
B-----------------------------|-----------------|--------------------|-1--------|
G---------5-7-7^8r7-5---5-7-5-|-7^9-7-5--5h7-5--|--------------------|-0--------|
D-----5h7-------------7-------|-----------------|-7-5----------5-----|-2--------|
A-5h7-------------------------|-----------------|------3h5-5/7----7\-|-3--------|
E-----------------------------|-----------------|--------------------|----------|

Song Progression

Intro

Rhy Fig 1a.

Rhy Fig 1b.

Interlude

Rhy Fig 1a. X 2

Solo 1

Rhy Fig 1a.

Rhy Fig 1b.

Interlude

Rhy Fig 1a. X (1 3/4)

Rhy Fig 1c.

Solo 2

Rhy Fig 1a. X (3 1/4)

Outro
            
Hard to play? Try these video lessons and learn fast. | Correct




comments powered by Disqus
↑ Back to top | Tablatures and chords are parodies/interpretations of the original songs. You may use it for private study, scholarship, research or language learning purposes only