» » »

Daytripper Tabs (ver.1)

Artists:  A B C D E F G H I J K L M N O P Q R S T U V W X Y Z # 

Daytripper Tabs (ver.1)

Oasis
Rating:
0/5 (0 votes)

Hard to play? Try these video lessons and learn fast.
                Song name : Daytripper
Artist    : Oasis with Paul Weller

Please note : this is completely the artists work and must only be used for private or educational purposes only.

Intro:


E-----------------------------------------------------------
B-----------------------------------------------------------
G-----------------------------------------------------------                 *4
A------------------------------2---0--------4------0---2----
D---------------------------2------------2-------2----------
E-----------0-------3---4-----------------------------------


Play this during verse :

E-----------------------------------------------------------
B-----------------------------------------------------------
G-----------------------------------------------------------                        A------------------------------2---0--------4------0---2----                   *2
D---------------------------2------------2-------2----------
E-----------0-------3---4-----------------------------------

 
E-----------------------------------------------------------
B-----------------------------------------------------------
G-------------------------------2---0--------4------0--2----                 
A----------------------------2----------2--------2----------                     * 1
D-----------0------3---4------------------------------------
E-----------------------------------------------------------

 

E-----------------------------------------------------------
B-----------------------------------------------------------
G-----------------------------------------------------------                 
A------------------------------2---0--------4------0---2----                      *1
D---------------------------2------------2-------2----------
E-----------0-------3---4-----------------------------------


Chorus

Bm * 16,      E7  * 4,    C * 4,       B * 4      
    


E-----------------------------------------------------------
B-----------------------------------------------------------
G-----------------------------------------------------------                 
A------------------------------2---0--------4------0---2----
D---------------------------2------------2-------2----------
E-----------0-------3---4-----------------------------------


Verse 2  = same as verse 1

 Repeat chorus

E-----------------------------------------------------------
B-----------------------------------------------------------
G-----------------------------------------------------------                  
A------------------------------2---0--------4------0---2----               * 1
D---------------------------2------------2-------2----------
E-0-v--v----0-------3---4-----------------------------------

Repeat verse 1

Repeat chorus

E-----------------------------------------------------------
B-----------------------------------------------------------
G-----------------------------------------------------------                 
A------------------------------2---0--------4------0---2----                * 4
D---------------------------2------------2-------2----------
E-----------0-------3---4-----------------------------------

Then

E----0------------------------------------------------------
B---------2-------2-----------------------------------------
G-------------0--------0----2-------------------------------            * 4
A-----------------------------------------------------------
D-----------------------------------------------------------                        E-----------------------------------------------------------                    

Then  slower  than  usual    

E------------------------------------------------------------------------------
B------------------------------------------------------------------------------
G------------------------------------------------------------------------------  *1 A---------------------------------------2------0--------4---------0------2-----
D---------------------------------2------------------2-------2-----------------
E-----------0-------3-------4--------------------------------------------------

End

I think that s it other than the riffs in the middle , but the main riff is in there so you can get the gist of it .

Enjoy!!
            
Hard to play? Try these video lessons and learn fast. | Correct




comments powered by Disqus
↑ Back to top | Tablatures and chords are parodies/interpretations of the original songs. You may use it for private study, scholarship, research or language learning purposes only