» » »

Cum On Feel The Noize Bass tabs (ver.1)

Artists:  A B C D E F G H I J K L M N O P Q R S T U V W X Y Z # 

Cum On Feel The Noize Bass tabs (ver.1)

Oasis
Rating:
0/5 (0 votes)

Hard to play? Try these video lessons and learn fast.
                
CUM ON FEEL THE NOIZE (Bassline)
As recorded by Oasis

	

Words by Slade Music by Oasis
Arranged by Oasis

Gtr I (E A D G) - 'Untitled'

 Intro
  Q=145
 4/4
  Gtr I
  Wx2          Q  Q  Q  E E   +Q   Q  E E Q    Q  Q  Q  E E
|------------|-5--5--4--4---|----------------|-5--5--4--4----|
|------------|------------7-|-(7)--7--7-7-7--|------------7--|
|------------|--------------|----------------|---------------|
|------------|--------------|----------------|---------------|


  +E   E  E E H       E E E E E E E E
|-------------------|-----------------|
|-(7)--5--7-5-------|-----------------|
|-------------------|-----------------|
|-------------5\----|-1-1-1-1-1-1-1-1-|


  E E E E E E E E   Q  Q  E E E E   +E  E E E E E E E
|-----------------|---------------|--------------------||
|-----------------|---------------|--------------------||
|-----------------|---------------|---------------3----||
|-1-1-1-1-1-1-1-1-|-3--3--3-3-1-3-|-(3)-3-1-3-3-5---5--||


 Verse
  Q  Q  E E  E E   Q Q E E E E   Q  Q  E E E E
|----------------|-------------|---------------|
|----------------|-------------|---------------|
|-3--3--3-3-/7---|-------------|---------------|
|--------------0-|-0-0-0-0-0-3-|-5--5--5-0-3-5-|


  +E  E Q  E E E E   Q  Q  Q  E E   +E  E Q  E E E  E
|------------------|--------------|----------------------|
|------------------|-3--3--2--2---|-----------------2----|
|------------------|------------5-|-(5)-5-5--5-5-5-------|
|-(5)-5-5--5-5-5-5-|--------------|----------------------|


  Q Q Q E E   +E  E Q E E E E   Q Q E E E E
|-----------|-----------------|-------------|
|-3-3-2-2---|-----------------|-------------|
|---------5-|-(5)-5-5-5-5-5-5-|-3-3-3-3-5-7-|
|-----------|-----------------|-------------|


  E E Q E E E E   Q Q E E E E   +E  E Q E E Q
|---------------|-------------|-----------------|
|---------------|-------------|-----------------|
|---------------|-------------|-----------------|
|-0-0-0-0-0-0-3-|-5-5-5-0-3-5-|-(5)-5-5-5-3-0---|


  Q  Q  Q  E E   +E  E Q  E E E E   Q  Q  Q  E E
|--------------|------------------|--------------|
|-3--3--2--2---|----------------2-|-3--3--2--2---|
|------------5-|-(5)-5-5--5-5-5---|------------5-|
|--------------|------------------|--------------|


  +E  E Q  E E E E   Q  Q  E E E E   Q  Q  E E Q
|------------------|---------------|---------------||
|------------------|---------------|---------------||
|-(5)-5-5--5-5-3---|---------------|-----------2---||
|----------------5-|-5--5--5-5-5-3-|-3--3--3-5-----||


 Chorus
  Q  Q Q E E   +Q   E  E +E  E E E   Q  Q  Q  E E   +E   Q  E +E  E Q
|------------|------2--2-(2)-0-----|--------------|-----/2--2-(2)-0-----|
|------------|-----------------2-0-|--------------|-----------------2---|
|-3--3-2-2-0-|-(0)-----------------|-3--3--2--2-0-|-(0)-----------------|
|------------|---------------------|--------------|---------------------|


  Q  Q  Q  E E   +E  E E E E E E E   Q  Q  Q  E E   +E  E E E E E E E
|--------------|-------------------|--------------|-------------------|
|-3--3--2--2---|-----------------2-|-3--3--2--2---|-------------------|
|------------5-|-(5)-5-5-5-5-5-5---|------------5-|-(5)-5-5-5-5-5-5-5-|
|--------------|-------------------|--------------|-------------------|


  Q  Q  Q  E E   +E  E E E E E E E   Q  Q  Q  E E   +Q   E E +E  E Q
|--------------|-----2-2-0-2-0-----|--------------|------2-2-(2)-0----|
|--------------|---------------2-0-|--------------|----------------2--|
|-3--3--2--2-0-|-(0)---------------|-3--3--2--2-0-|-(0)---------------|
|--------------|-------------------|--------------|-------------------|


  Q  Q  Q  E E   +E  E Q  E E E E   E E E E E E E E   E E E E E E Q
|--------------|------------------|-----------------|----------------||
|-3--3--2--2---|------------------|-----------------|----------------||
|------------5-|-(5)-5-5--5-5-5-5-|-----------------|-------------2--||
|--------------|------------------|-3-3-2h3-3-3-2h3-|-3-3-2h3-3-5----||


 Verse 2
  Q  Q  E E  E E   Q  Q  E E E E   Q  Q  E E E E   +E  E Q  E E Q
|----------------|---------------|---------------|-----------------|
|----------------|---------------|---------------|-----------------|
|-3--3--3-3-/7---|---------------|---------------|-----------------|
|--------------0-|-0--0--0-0-0-3-|-5--5--5-0-3-5-|-(5)-5-5--5-3-0--|


  Q  Q  Q  E E   +E  E Q  E E E E   Q  Q  Q  E E   E E Q  E E E E
|--------------|------------------|--------------|----------------|
|-3--3--2--2---|----------------2-|-3--3--2--2---|----------------|
|------------5-|-(5)-5-5--5-5-5---|------------5-|-5-5-5--5-5-5-5-|
|--------------|------------------|--------------|----------------|


  Q  Q  E E E E   E E Q  E E E E   Q  Q E E E E   +E  E Q  E E Q
|---------------|----------------|--------------|------------------|
|---------------|----------------|--------------|------------------|
|-3--3--3-3-5-7-|----------------|--------------|------------------|
|---------------|-0-0-0--0-0-0-3-|-5--5-5-0-3-5-|-(5)-5-5--5-3-0---|


  Q  Q  Q  E E   +E  E Q  E E E E   Q  Q  Q  E E
|--------------|------------------|-----------------|
|-3--3--2--2---|----------------2-|-3--3--2--2------|
|------------5-|-(5)-5-5--5-5-5---|------------5----|
|--------------|------------------|-----------------|


  +E  E Q  E E E E   Q  Q  E E E E   Q  Q  E E Q
|------------------|---------------|----------------||
|------------------|---------------|----------------||
|-(5)-5-5--5-5-3---|---------------|-----------2----||
|----------------5-|-5--5--5-5-5-3-|-3--3--3-5------||


  Q  Q  Q  E E   E E E E E E E E   Q  Q  Q  E E   +E  E E E +E  E Q
|--------------|---2-2-0-2-0-----|--------------|-------0-2-(2)-0----|
|--------------|-------------2-0-|--------------|-----2-----------2--|
|-3--3--2--2-0-|-0---------------|-3--3--2--2-0-|-(0)----------------|
|--------------|-----------------|--------------|--------------------|


 Chorus2
  Q  Q  Q  E E   +E  E Q  E E E E   Q  Q  Q  E E   +E  E Q  E E Q
|--------------|------------------|--------------|-----------------|
|-3--3--2--2---|----------------2-|-3--3--2--2---|-----------------|
|------------5-|-(5)-5-5--5-5-5---|------------5-|-(5)-5-5--5-5-5--|
|--------------|------------------|--------------|-----------------|


  Q  Q  Q  E E   Q  E E +E  E E E   Q  Q  Q  E E   +Q   E E +E  E Q
|--------------|----2-2-(2)-2-2-2-|--------------|------2-2-(2)-0------|
|--------------|------------------|--------------|----------------2----|
|-3--3--2--2-0-|-0----------------|-3--3--2--2-0-|-(0)-----------------|
|--------------|------------------|--------------|---------------------|


  Q  Q  Q  E E   +E  E Q  E E E E   E E E E E E E E   E E E E E E E E
|--------------|------------------|-----------------|-----------------||
|-3--3--2--2---|------------------|-----------------|-----------------||
|------------5-|-(5)-5-5--5-5-5-5-|-----------------|-----------------||
|--------------|------------------|-3-3-2h3-3-3-2h3-|-3-3-3-3-3-3-3-3-||


 Re-Intro
  H    Q.   E   +W           H    Q.   E   +H      H
|-5----4------|------------|-5----4------|--------------|
|-----------7-|-(7)--------|-----------7-|-(7)----------|
|-------------|------------|-------------|--------------|
|-------------|------------|-------------|---------5\---|


  E E E E E E E E   E E E E E E E E   E E E E E E E E   E E E E E E Q
|-----------------|-----------------|-----------------|----------------||
|-----------------|-----------------|-----------------|----------------||
|-----------------|-----------------|-----------------|-------------2--||
|-1-1-1-1-1-1-1-1-|-1-1-1-1-1-1-1-1-|-3-3-2h3-3-3-2h3-|-3-3-2h3-3-5----||


 Verse3
  Q  Q  E E  E E   Q  Q  E E E E   Q  Q  E E E E   +E  E Q  E E E E
|----------------|---------------|---------------|------------------|
|----------------|---------------|---------------|------------------|
|-3--3--3-3-/7---|---------------|---------------|------------------|
|--------------0-|-0--0--0-0-0-3-|-5--5--5-0-3-5-|-(5)-5-5--5-5-5-5-|


  Q  Q  Q  E E   +E  E Q  E E E E   Q  Q  Q  E E   +E  E Q  E E E E
|--------------|------------------|--------------|------------------|
|-3--3--2--2---|----------------2-|-3--3--2--2---|------------------|
|------------5-|-(5)-5-5--5-5-5---|------------5-|-(5)-5-5--5-5-5-0-|
|--------------|------------------|--------------|------------------|


  Q  Q  E E  E E   Q  Q  E E E E   Q  Q  E E E E   +E  E Q  E E E E
|----------------|---------------|---------------|------------------|
|----------------|---------------|---------------|------------------|
|-3--3--3-3-/7---|---------------|---------------|------------------|
|--------------0-|-0--0--0-0-0-3-|-5--5--5-0-3-5-|-(5)-5-5--5-5-5-5-|


  Q  Q  Q.   E   +E  E Q  E E E E   Q  Q  Q.   E
|--------------|------------------|-----------------|
|-3--3--2------|----------------2-|-3--3--2---------|
|------------5-|-(5)-5-5--5-5-5---|------------5----|
|--------------|------------------|-----------------|


  +E  E E E E E E E   Q  E E E E E E   +E  E E E  E E E E
|-------------------|------2-0-2-----|-----------------------||
|-------------------|----------------|-----------------------||
|-(5)-5-5-5-5-5-5-5-|-0--0-------0---|-----------------------||
|-------------------|--------------3-|-(3)-3-3-3--3-3-3-3----||


 Final Chorus
  Q  Q  Q  E E   +Q  E E +E  E E E   Q  Q  Q  E E   +Q   E E +E  E Q
|--------------|-----0-2-(2)-0-----|--------------|------0-2-(2)-0-----|
|--------------|---------------2-0-|--------------|----------------2---|
|-3--3--2--2-0-|-(0)---------------|-3--3--2--2-0-|-(0)----------------|
|--------------|-------------------|--------------|--------------------|


  Q  Q  Q.   E   +E  E Q  E E E E   Q  Q  Q.   E   +E  E E E E E E E
|--------------|------------------|--------------|-------------------|
|-3--3--2------|----------------2-|-3--3--2------|-------------------|
|------------5-|-(5)-5-5--5-5-5---|------------5-|-(5)-5-5-5-5-5-5-0-|
|--------------|------------------|--------------|-------------------|


  Q  Q  Q  E E   +E  E E E E E E E   Q  Q  Q  E E   +E  E E E E E Q
|--------------|-----2-0---0-2-0---|--------------|-----2-2-2-2-0----|
|--------------|---------2-------2-|--------------|---------------2--|
|-3--3--2--2-0-|-(0)---------------|-3--3--2--2-0-|-(0)--------------|
|--------------|-------------------|--------------|------------------|


  Q  Q  Q  E E   +E  E E E E E E E   E E E E E E E E   E E E E E E Q
|--------------|-------------------|-----------------|----------------||
|-3--3--2--2---|-------------------|-----------------|----------------||
|------------5-|-(5)-5-5-5-5-5-5-5-|-----------------|-------------2--||
|--------------|-------------------|-3-3-2h3-3-3-3-3-|-3-3-3-3-3-5----||


  Q  Q  Q  E E   +E  E E E E E E E   Q  Q  Q  E E   +E  E E E E E Q
|--------------|-----2-0---0-2-0---|--------------|-----2-2-2-2-0----||
|--------------|---------2-------2-|--------------|---------------2--||
|-3--3--2--2-0-|-(0)---------------|-3--3--2--2-0-|-(0)--------------||
|--------------|-------------------|--------------|------------------||


 Ending Solo
  Q  Q  Q  E E   +E  E E E E E E E   Q  Q  Q  E E   +E  E E E E E E E
|--------------|-------------------|--------------|-------------------|
|-3--3--2--2---|-----------------2-|-3--3--2--2---|-------------------|
|------------5-|-(5)-5-5-5-5-5-5---|------------5-|-(5)-5-5-5-5-5-5-5-|
|--------------|-------------------|--------------|-------------------|


  Q  Q  Q  E E   +E  E E E E E E E   Q  Q  Q  E E   +E  E E E E E Q
|--------------|-----2-0---0-2-0---|--------------|-----2-2-2-2-0----|
|--------------|---------2-------2-|--------------|---------------2--|
|-3--3--2--2-0-|-(0)---------------|-3--3--2--2-0-|-(0)--------------|
|--------------|-------------------|--------------|------------------|


  Q  Q  Q  E E   +E  E E E E E E E   Q  Q  Q  E E   +E  E E E E E E E
|--------------|-------------------|--------------|-------------------|
|-3--3--2--2---|-----------------2-|-3--3--2--2---|-------------------|
|------------5-|-(5)-5-5-5-5-5-5---|------------5-|-(5)-5-5-5-5-5-5-5-|
|--------------|-------------------|--------------|-------------------|


  Q  Q  Q  E E   +E  E E E E E E E   Q  Q  Q  E E   +E  E E E E E Q
|--------------|-----2-0---0-2-0---|--------------|-----2-2-2-2-0----|
|--------------|---------2-------2-|--------------|---------------2--|
|-3--3--2--2-0-|-(0)---------------|-3--3--2--2-0-|-(0)--------------|
|--------------|-------------------|--------------|------------------|


  Q  Q  Q  E E   +E  E E E E E E E   Q  Q  Q  E E   +E  E E E E E Q
|--------------|-----2-0---0-2-0---|--------------|-----2-2-2-2-0----||
|--------------|---------2-------2-|--------------|---------------2--||
|-3--3--2--2-0-|-(0)---------------|-3--3--2--2-0-|-(0)--------------||
|--------------|-------------------|--------------|------------------||


 Ending
  Q  Q  Q  E E   +E  E E E E E E E   Q  Q  Q  E E   +E  E E E E E E E
|--------------|-------------------|--------------|-------------------|
|-3--3--2--2---|-----------------2-|-3--3--2--2---|-------------------|
|------------5-|-(5)-5-5-5-5-5-5---|------------5-|-(5)-5-5-5-5-5-5-5-|
|--------------|-------------------|--------------|-------------------|


  Q  Q  Q  E E   +E  E E E E E E E   Q  Q  Q  E E   +E  E E E E E Q
|--------------|-----2-0---0-2-0---|--------------|-----2-2-2-2-0----|
|--------------|---------2-------2-|--------------|---------------2--|
|-3--3--2--2-0-|-(0)---------------|-3--3--2--2-0-|-(0)--------------|
|--------------|-------------------|--------------|------------------|


  Q  Q  Q  E E   +E  E E E E E E E   Q  Q  Q  E E   +E  E E E E E E E
|--------------|-------------------|--------------|-------------------|
|-3--3--2--2---|-----------------2-|-3--3--2--2---|-------------------|
|------------5-|-(5)-5-5-5-5-5-5---|------------5-|-(5)-5-5-5-5-5-5-5-|
|--------------|-------------------|--------------|-------------------|



Duration Legend
---------------
W - whole; H - half; Q - quarter; E - 8th; S - 16th; T - 32nd; X - 64th; a - acciaccatura
+ - note tied to previous; . - note dotted; .. - note double dotted
Uncapitalized letters represent notes that are staccato (1/2 duration)
Irregular groupings are notated above the duration line
Duration letters will always appear directly above the note/fret number it represents the
duration for.  Duration letters with no fret number below them represent rests.  Multi-
bar rests are notated in the form Wxn, where n is the number of bars to rest for.  Low
melody durations appear below the staff

Tablature Legend
----------------
 h   - hammer-on
 p   - pull-off
 b   - bend
 pb  - pre-bend
 r   - bend release (if no number after the r, then release immediately)
 /\  - slide into or out of (from/to "nowhere")
 s   - legato slide
 S   - shift slide
 - natural harmonic
[n]  - artificial harmonic
n(n) - tapped harmonic
 ~   - vibrato
 tr  - trill
 T   - tap
 TP  - trem. picking
 PM  - palm muting
\n/  - tremolo bar dip; n = amount to dip
 \n  - tremolo bar down
 n/  - tremolo bar up
/n\  - tremolo bar inverted dip
 =   - hold bend; also acts as connecting device for hammers/pulls
 <> - volume swell (louder/softer)
 x   - on rhythm slash represents muted slash
 o   - on rhythm slash represents single note slash

Misc Legend
-----------
 |  - bar
||  - double bar
||o - repeat start
o|| - repeat end
*|  - double bar (ending)
 :  - bar (freetime)
 $  - Segno
 &  - Coda
Tempo markers -  = BPM(8/16=s8/s16), where s8 = swing 8ths, s16 = swing 16ths
            
Hard to play? Try these video lessons and learn fast. | Correct




comments powered by Disqus
↑ Back to top | Tablatures and chords are parodies/interpretations of the original songs. You may use it for private study, scholarship, research or language learning purposes only