» » »

Oasis, Columbia Bass tabs (ver.4)

Artists:  A B C D E F G H I J K L M N O P Q R S T U V W X Y Z # 

Columbia Bass tabs (ver.4)

Oasis Tabs
 Rating:
4/5 (4 votes)
Columbia lessons Tabs too difficult? Try these video lessons and learn fast
                This is from the album Definately Maybe and is one of my favourite songs. Hope you enjoy.

G|-----------------------------------------------------------------|
D|-----------------------------------------------------------------|
A|-0-0-0-0-0-0-0-0-0-0-0-0-0-0-0-0-5-5-5-5-5-5-5-5-3-3-3-3-3-3-3-3-|
E|-----------------------------------------------------------------|

Keep reapeating the above until you get to the end of the second chorus. Straight after 
chorus play:

G|-----------------------------------------------------------------|
D|-----------------------------------------------------------------|
A|-0-0-0-0-0-0-0-0-0-0-0-0-0-0-0-0-5-5-5-5-5-5-5-5-3-3-3-3-3-3-3-3-|
E|-----------------------------------------------------------------| x4

G|-----------------------------------------------------------------|
D|-----------------------------------------------------------------|
A|-7-7-7-7-7-7-7-7-7-7-7-7-7-7-7-7---------------------------------|
E|---------------------------------5-5-5-5-5-5-5-5-3-3-3-3-3-3-3-3-| x4

G|-------------------------------------------|
D|-------------------------------------------|
A|-0/12-0/12-5-5-5-5-5-5-5-5-3-3-3-3-3-3-3-3-|
E|-------------------------------------------| x2

G|-----------------------------------------------------------------|
D|-----------------------------------------------------------------|
A|-0-0-0-0-0-0-0-0-0-0-0-0-0-0-0-0-5-5-5-5-5-5-5-5-3-3-3-3-3-3-3-3-|
E|-----------------------------------------------------------------| x4

G|-----------------------------------------------------------------|
D|-----------------------------------------------------------------|
A|-7-7-7-7-7-7-7-7-7-7-7-7-7-7-7-7---------------------------------|
E|---------------------------------5-5-5-5-5-5-5-5-3-3-3-3-3-3-3-3-|

Then play this for the rest of the song:

G|-----------------------------------------------------------------|
D|-----------------------------------------------------------------|
A|-11/12-11/12-11/12-11/12-----------------------------------------|
E|-------------------------5-5-5-5-5-5-5-5-3-3-3-3-3-3-3-3---------|
            
Submit corrections

comments powered by Disqus
↑ Back to top | Oasis Bass for Columbia. Lyrics for acoustic guitar and electric guitar. Tablatures and chords are parodies/interpretations of the original songs. You may use it for private study, scholarship, research or language learning purposes only