» » »

Cloudburst Bass tabs (ver.1)

Artists:  A B C D E F G H I J K L M N O P Q R S T U V W X Y Z # 

Cloudburst Bass tabs (ver.1)

Oasis
Rating:
0/5 (0 votes)

Hard to play? Try these video lessons and learn fast.
                Cloudburst from the single Live Forever.


Intro:			      2x
G|---------|-------------------|-------------------|-------------------|
D|-4-bars--|*-----------------*|-------------------|-------------------|
A|-no-play-|*-----------------*|-------------------|-------------------|
E|---------|--0-0-0-0-0-0-0-0--|--0-0-0-0-0-0-3-4--|--5-5-5-5-5-5-4-3--|

Verse
G|--------------------------|
D|--------------------------|
A|--------------------------|
E|--0-0-3-0-4-5-5-5-5-5-5-4-|

PreChorus				4x
G|-------------------|-------------------|-------------------|
D|*------------------|------------------*|-------------------|
A|*-4-4-4-4-4-4-4-4--|------------------*|-------------------|
E|-------------------|--5-5-5-5-5-5-5-5--|--5-5-5-5-0-0-0-0--|

Chorus
      5x	
G|-----|
D|-----|
A|--5--|
E|-----|

Back to Verse
PreChorus
Chorus

End
G|-------------------|-------------------|
D|-------------------|-------------------|
A|-------------------|-------------------|
E|--0-0-0-0-0-0-0-0--|--0-0-0-0-0-3-4-5--|
            
Hard to play? Try these video lessons and learn fast. | Correct




comments powered by Disqus
↑ Back to top | Tablatures and chords are parodies/interpretations of the original songs. You may use it for private study, scholarship, research or language learning purposes only