>
 >
Champagne Supernova Live 2

Champagne Supernova Live 2 Guitar Tabs

Oasis - Champagne Supernova Live 2 chords, tabs, tablatures, lyrics

Guitar lessons | Add/correct | Request | Top 50 tabs Artists:  A B C D E F G H I J K L M N O P Q R S T U V W X Y Z 0-9

Champagne Supernova Live 2 Guitar Tabs – Oasis

CD, Sheet music, Poster

Do you like Champagne Supernova Live 2? Share with your friends now
Bass TabsChordsTabsTabs v2Ukulele
Champagne Supernova Live at the GMEX 97 - outro


Also, this is the first tab i have done and did it beacause i couldn't find one
for this outro, which i really wanted to learn.

Good luck

b = bend
r = release bend
h = hammer on
p = pull off
^ = let note ring while making it vibrate
s = slide


5 minutes 40 seconds
--------------------

e------------------------------------------------------|
B------------------------------------------------------|
G--4b5r2-------2h4p2--4--2--4b5r2--4b5r2--4h5p2--4sb5--|
D---------2h4------------------------------------------|
A------------------------------------------------------|
E------------------------------------------------------|

e------------------------------------------------------|
B------------------------------------------------------|
G--4b5-4b5--2h4p2--4--4b5r4-2--2s4b5r4-2---------------|
D------------------------------------------------------|
A------------------------------------------------------|
E------------------------------------------------------|

e------------------------------------------------------------------------------------|
B------------------------------------------------------------------------------------|
G--2p0-----------2p0-----------2p0-------------2p0-------------2p0-------------2p0---|
D------2p0-----------2p0-----2-----2p0-----2p0-----2p0-----2p0-----2p0-----2p0-------|
A----------3p0-----------3p0-----------3p0-------------3p0-------------3p0-----------|
E------------------------------------------------------------------------------------|

e------------------------------------------------------------------------------------|
B------------------------------------------------------------------------------------|
G----------------2p0-----------------2p0-----------------2p0-------2p0-------2-------|
D--2p0------2p0-------2p0-------2p0-------2p0-------2p0-------2p0-------2p0----------|
A------3p0-----------------3p0-----------------3po-----------------------------------|
E------------------------------------------------------------------------------------|

e-------------------------------------------------------|
B--5h6p5-----------------------5h6p5--------------------|
G---------7--5--7--5-----5------------7--5--7--5--------|
D---------------------7-----7---------------------7--7--|
A-------------------------------------------------------|
E-------------------------------------------------------|

e-------------------------------------------------------|
B-------------------------------------------------------|
G-------5-----7--7b8r7--5----------5-----7b8r7p5--------|
D--5h7-----7---------------7--5h7-----7-----------7-----|
A-------------------------------------------------------|
E-------------------------------------------------------|

e-------------------------------------------------------------x--x--x--x--x--x--|
B--5h6p5-----------------------5h6p5--------8--6--5--8--6--5--8--6--8--6--8--6--|
G---------7--5--7--5-----5------------7--5--------------------------------------|
D---------------------7-----7---------------------------------------------------|
A-------------------------------------------------------------------------------|
E-------------------------------------------------------------------------------|

e------------------------------------------------------------------------------------|
B--17----17----17--------------------------------------------------------------------|
G--19b21-19b21-19b21--17------17--19--19b21r19--17h19p17-------------17------17------|
D-------------------------19------------------------------19--17h19------19------19--|
A------------------------------------------------------------------------------------|
E------------------------------------------------------------------------------------|

e------------------------------------------------------------------------------------|
B------------------------------------------------------------------------------------|
G--17-17-17b18r17--17-17-17b18r17--17-17-17b18r17--19--17--19--17--19--17--19--17----|
D------------------------------------------------------------------------------------|
A------------------------------------------------------------------------------------|
E------------------------------------------------------------------------------------|

e------------------------------------------------------------------------------------|
B--17----17----17--------------------------------------------------------------------|
G--19b21-19b21-19b21--17------17--19--17--19b21r19--17h19------17------17------17----|
D-------------------------19-------------------------------19------19------19--------|
A------------------------------------------------------------------------------------|
E------------------------------------------------------------------------------------|

e------------------------------------------------------------------------------------|
B--17^--s--22^--20^--17^--15^--13^--13h5p13--12^--12h13p12---------------------------|
G------------------------------------------------------------------------------------|
D------------------------------------------------------------------------------------|
A------------------------------------------------------------------------------------|
E------------------------------------------------------------------------------------|

e------------------------------------------------------------------------------------|
B------------------------------------------------------------------------------------|
G--12h13p12--13b14r13--12h13p12--13b14r13--12h13p12--13b14r13--12h13p12--13b14r13----|
D------------------------------------------------------------------------------------|
A------------------------------------------------------------------------------------|
E------------------------------------------------------------------------------------|

e--5---------------------------------------------------------------------------------|
B-----8--5--8--5-----5---------------------------------------------------------------|
G-----------------7-----7--5--7--5--7b8r7--5-----------------------------------------|
D---------------------------------------------7--5h7p5-------------------------------|
A-------------------------------------------------------7--5--7--5--3--5--3--0-------|
E------------------------------------------------------------------------------------|

e------------------------------------------------------------------------------------|
B------------------------------------------------------------------------------------|
G------------------------7-7-7b8r7--7-7-7b8r7----------------------------------------|
D------------------------------------------------------------------------------------|
A--3p0--3--0--3p0--3--0--------------------------------------------------------------|
E------------------------------------------------------------------------------------|

e------------------------------------------------------------------------------------|
B------------------------------------------------------------------------------------|
G--12h13p12--13b14r13--12h13p12--13b14r13--12h13p12--13b14r13--12h13p12--13b14r13----|
D------------------------------------------------------------------------------------|
A------------------------------------------------------------------------------------|
E------------------------------------------------------------------------------------|

e--5---------------------------------------------------------------------------------|
B-----8--5--8--5-----5---------------------------------------------------------------|
G-----------------7-----7--5--7--5--7b8r7--5-----------------------------------------|
D---------------------------------------------7--5h7p5-------------------------------|
A-------------------------------------------------------7--5--7--5--3--5--3--0-------|
E------------------------------------------------------------------------------------|

e-------------------------------------------------------------------------------------|
B-------------------------------------------------------------------------------------|
G---------------------------------------------5-----7--7b8r7--5-----7--7b8-7b8-7b8p5--|
D-----------------5--5h7--------------5--5h7-----7---------------7--------------------|
A--3--0--5--0--7----------3--0--5--7--------------------------------------------------|
E-------------------------------------------------------------------------------------|

e-----------------------------------------------------------------------------------|
B-----------------------------------------------------------------------------------|
G------------------------------------------------5^--7^--9^--12^--14^---------------|
D--7-----------------5--5h7-----------------5--5h7----------------------------------|
A-----3--0--5--0--7----------3--0--5--0--7------------------------------------------|
E-----------------------------------------------------------------------------------|

e-----------------------------------------------------------------------------------|
B--14--12--9--9--7--5---------14--12--9--9--7--5------------------------------------|
G----------------------7--------------------------7--7--5---------------------------|
D----------------------------------------------------------7--5--3--5--3--0---------|
A-----------------------------------------------------------------------------------|
E-----------------------------------------------------------------------------------|


e-----------------------------------------------------------------------------------|
B---------------------------------------------------------------16-16-16------------|
G--9-9-9--11-11-11--12-12-12-12-12-12-12--13-13-13-13-13-13-13------------13-13-13--|
D-----------------------------------------------------------------------------------|
A-----------------------------------------------------------------------------------|
E-----------------------------------------------------------------------------------|

e-----------------------------------------------------------------------------------|
B--16-16-16-16-16-16-16--22-22-20-20-17-17-15-13--s--22-22-20-20-17-17-15-13--------|
G-----------------------------------------------------------------------------------|
D-----------------------------------------------------------------------------------|
A-----------------------------------------------------------------------------------|
E-----------------------------------------------------------------------------------|

e-----------------------------------------------------------------------------------|
B--13--13--12--12----------13--13--12--12-------------------------------------------|
G------------------14--14------------------14--14-----------------------------------|
D-----------------------------------------------------------------------------------|
A-----------------------------------------------------------------------------------|
E-----------------------------------------------------------------------------------|

e-----------------------------------------------------------------------------------|
B--13--13--12--12----------12--12--13--13--12---------------------------------------|
G------------------14--14----------------------14-----------------------------------|
D-----------------------------------------------------------------------------------|
A-----------------------------------------------------------------------------------|
E-----------------------------------------------------------------------------------|

e-----------------------------------------------------------------------------------|
B--12--13--12------12--13--12------12--13--12------12--13--12-----------------------|
G--------------14--------------14--------------14-----------------------------------|
D-----------------------------------------------------------------------------------|
A-----------------------------------------------------------------------------------|
E-----------------------------------------------------------------------------------|

e-----------------------------------------------------------------------------------|
B-----------------------------------------------------------------------------------|
G--14b15--14--14--12--9--7--5-------------------------------------------------------|
D-----------------------------------------------------------------------------------|
A-----------------------------------------------------------------------------------|
E-----------------------------------------------------------------------------------|

e--------------------------------------|
B--------------------------------------|
G--5h7p5-----5h7p5-----7-7br7--7-7br7--|
D---------7---------7--7-7br7--7-7br7--|
A--------------------------------------|
E--------------------------------------|

Effects pedal needed

e--------------------------------------|
B--10--8--7--5--7--10-10-10--10-10-10--|
G--------------------------------------|
D--------------------------------------|
A--------------------------------------|
E--------------------------------------|

Effects pedal needed

e-------------------------------------------------|
B--2--3--5--5s7--7s2--2h3--2h3p2--3--5--5s7--7s2--|
G-------------------------------------------------|
D-------------------------------------------------|
A-------------------------------------------------|
E-------------------------------------------------|

e-------------------------------------------------|
B--3--2--3----2--0--2----2-----0------------------|
G---------------------------2-----0----5--4--2----|
D-------------------------------------------------|
A-------------------------------------------------|
E-------------------------------------------------|

e-----------|
B--3p2h3p2--|
G-----------|
D-----------|
A-----------|
E-----------|





Comments


Popular Oasis tabs & chords
(I Got) The Fever Chords
Better Man Chords
Dont Look Back In Anger 5 Chords
I Hope I Think I Know 1 Chords
Lord Dont Slow Me Down 2 Chords
Headshrinker Drum Tabs
Digsy Diner Easy 1 Tabs
Dont Look Back In Anger Live 2 Tabs
Hey Now 1 Tabs
My Sister Lover Tabs


Song lyrics



↑ Back to top | Tablatures and chords are parodies/interpretations of the original songs. You may use it for private study, scholarship, research or language learning purposes only
© 2014 AZChords.com Contact us | Privacy policy | DMCA | Add/correct tabs | Request tabs | Top 50 tabs