» » »

Oasis, Champagne Supernova Tabs (ver.6)

Artists:  A B C D E F G H I J K L M N O P Q R S T U V W X Y Z # 

Champagne Supernova Tabs (ver.6)

Oasis Tabs
 Rating:
4/5 (4 votes)
Champagne Supernova lessons Tabs too difficult? Try these video lessons and learn fast
                -------------------------------------------------------------------------------
-------------------------------------------------------------------------------

Tuning: Standard
                             Intro
e|-----------------------------------------------------------------------------------|
B|------------0--------0-----------------------0-------------------------------------|
G|--------2----------2---2----------------2-------2-----2----------------------------|
D|-----2-------------------------------2-------------2-------------------------------|
A|--0--------------------------------------------------------------------------------|
E|--------------------------------3--------------------------------------------------|

e|-------------------------------------------0-------------------------------------|
B|--------------0----------------------------0-------------------------------------|
G|-----------2-------2-----2-----------------2-------------------------------------|
D|-------2--------------2--------------------2-------------------------------------|
A|---------------------------------------------------------------------------------|
E|---2--------------------------------0--------------------------------------------|

e|-------------------0--------------------------------------------------------------|
B|------------0---------0---------------------0-------------------------------------|
G|---------2-----2------------------------2-------2--------2------------------------|
D|------2------------------------------2--------------2-----------------------------|
A|---0------------------------------------------------------------------------------|
E|---------------------------------3------------------------------------------------|

e|---------------------------------------------0-----------------------------------|
B|--------------0------------------------------0-----------------------------------|
G|----------2-------2------2-------------------2-----------------------------------|
D|--------2------------2-----------------------2-----------------------------------|
A|---------------------------------------------------------------------------------|
E|----2--------------------------------0-------------------------------------------|
        Asus2 x8      Asus2/G x8    AsusF# x8     Asus2x8
e|--------0--------------0-------------0----------0-----------------------------------|
B|--------0--------------0-------------0----------0-----------------------------------|
G|--------2--------------2-------------2----------2-----------X6----------------------|
D|--------2--------------2-------------2----------2-----------------------------------|
A|--------0--------------0-------------0----------0-----------------------------------|
E|--0-----x---------3----x---------2-----------0--x-----------------------------------|

 Chorus   A x8  G x8   Dm7/F# x8  E x8
e|---------5------3-------0-------0----------------------------------------------|
B|---------5------3-------2-------0----------------------------------------------|
G|---------6------4-------2-------1-----------------X2---------------------------|
D|---------7------5-------0-------2----------------------------------------------|
A|---------7------5-------0-------2----------------------------------------------|
E|------5--x----3-x-------2-------0----------------------------------------------|
 Bridge    G x16    A x16    G x8      D x8    E x16
e|-----------3--------5--------3---------2--------0-------------------------------|
B|-----------3--------5--------3---------3--------0-------------------------------|
G|-----------4--------6--------4---------2--------1-------------------------------|
D|-----------5--------7--------5---------0--------2-------------------------------|
A|-----------5--------7--------5---------0--------2-------------------------------|
E|-----------3--------5--------3---------x--------0-------------------------------|
       Asus2 x8      Asus2/G x8    AsusF#x8      Asus2x8
e|--------0--------------0-------------0----------0----------------------------------|
B|--------0--------------0-------------0----------0----------------------------------|
G|--------2--------------2-------------2----------2-----------X4---------------------|
D|--------2--------------2-------------2----------2----------------------------------|
A|--------0--------------0-------------0----------0----------------------------------|
E|--0-----x---------3----x---------2-----------0--x----------------------------------|

                             (Guitar Solo) then>>
       Asus2 x8      Asus2/G x8    AsusF#x8      Asus2x8
e|--------0--------------0-------------0----------0--------------------------------|
B|--------0--------------0-------------0----------0--------------------------------|
G|--------2--------------2-------------2----------2--------------------------------|
D|--------2--------------2-------------2----------2--------------------------------|
A|--------0--------------0-------------0----------0--------------------------------|
E|--0-----x---------3----x---------2-----------0--x--------------------------------|

 Bridge    G x16    A x16    G x8      D x8    E x16
e|-----------3--------5--------3---------2--------0-------------------------------|
B|-----------3--------5--------3---------3--------0-------------------------------|
G|-----------4--------6--------4---------2--------1-------------------------------|
D|-----------5--------7--------5---------0--------2-------------------------------|
A|-----------5--------7--------5---------0--------2-------------------------------|
E|-----------3--------5--------3---------x--------0-------------------------------|

                         Acoustic for guitar solo
     A x8   G x8   F#minor x8    E x3   G x3
e|----5-------3-------2----------1-------3--------------------------------------------|
B|----5-------3-------2----------1-------3--------------------------------------------|
G|----6-------4-------2----------2-------4-----------------x5-------------------------|
D|----7-------5-------4----------3-------5--------------------------------------------|
A|----7-------5-------4----------3-------5--------------------------------------------|
E|----5-------3-------2----------1-------3--------------------------------------------|

Just strum Asus2 during next guitar solo

       Asus2 x8      Asus2/G x8    AsusF#x8      Asus2x8
e|--------0--------------0-------------0----------0----------------------------------|
B|--------0--------------0-------------0----------0----------------------------------|
G|--------2--------------2-------------2----------2-----------X2---------------------|
D|--------2--------------2-------------2----------2----------------------------------|
A|--------0--------------0-------------0----------0----------------------------------|
E|--0-----x---------3----x---------2-----------0--x----------------------------------|

     Asus2(strum to "we were geting high")
e|----------0--------------0---------------------------------------------------------|
B|----------0--------------0---------------------------------------------------------|
G|----------2--------------2---------------------------------------------------------|
D|----------2--------------2---------------------------------------------------------|
A|----------0--------------0---------------------------------------------------------|
E|---0------x------0 0-----x---------------------------------------------------------|

| /  slide up
| \  slide down
| h  hammer-on
| p  pull-off
| ~  vibrato
| +  harmonic
| x  Mute note
=========================================================================
            
Submit corrections

comments powered by Disqus
↑ Back to top | Oasis Tabs for Champagne Supernova. Lyrics for acoustic guitar and electric guitar. Tablatures and chords are parodies/interpretations of the original songs. You may use it for private study, scholarship, research or language learning purposes only