>
 >
Champagne Supernova 2

Champagne Supernova 2 Guitar Tabs

Oasis - Champagne Supernova 2 chords, tabs, tablatures, lyrics

Guitar lessons | Add/correct | Request | Top 50 tabs Artists:  A B C D E F G H I J K L M N O P Q R S T U V W X Y Z 0-9

Champagne Supernova 2 Guitar Tabs – Oasis

CD, Sheet music, Poster

Do you like Champagne Supernova 2? Share with your friends now
Bass TabsBass Tabs v2ChordsChords v2Chords v3Chords v4Chords v5TabsTabs v2Tabs v3Tabs v4Ukulele
-------------
-Chords used-
-------------

Asus2		x02200
Asus2/G		3x2200
F#m11		2x2200
Esus4		022200     [Or try 0x2200]
A		x02220
G		320033
D/F#		200232
E		022100
D		xx0232
E7		020130
F#m		244222
F		133211
Fmaj7+11	133200
G6		355400
A+9		577600


--------------
-Symbols used-
--------------

b	bend
r	release
h	hammer-on
p	pull-off
s	slide
~	let ring


-------
-Intro-
-------

 Asus2            Asus2/G
e-----5-----5-----------5h7-5---5-
B-5h7---5h7---5h7-5-5h7-------7---
G---------------------------------
D---------------------------------
A---------------------------------
E---------------------------------

 F#m11        Esus4
e-----5-----5-5h7p5--------5-----5-----5---
B-5h7---5h7---------h7-5h7---5h7---5h7---7-
G----------------------------------------7-
D------------------------------------------
A------------------------------------------
E------------------------------------------


 Asus2       Asus2/G                F#m11       Esus4     Asus2
e-------------------------5-----5-------------------------------
B---------------------5h7---5h7---5-----------------5---3-2-----
G----------2------------------------2---------2-4s6---4---2-----
D------2h4--------------------------------2h4-------------------
A---------------------------------------------------------------
E---------------------------------------------------------------


---------
-Verse 1-
---------

Asus2
How many special people change?

Asus2/G
How many lives are living strange?

F#m11                                Esus4
Where were you while we were getting high?

Asus2
 Slowly walking down the hall

Asus2/G
Faster than a cannonball

F#m11                                Esus4
Where were you while we were getting high?


----------
-Chorus 1-
----------

                 Asus2                      Asus2/G
Someday you will find me caught beneath the landslide

     F#m11                      Esus4
In a champagne supernova in the sky

                 Asus2                      Asus2/G
Someday you will find me caught beneath the landslide

     F#m11                  Esus4                      Asus2
In a champagne supernova, a champagne supernova in the sky


Asus2/G     F#m11     Esus4


---------
-Verse 1-
---------

Asus2
Wake up the dawn and ask her why

  Asus2/G
A dreamer dreams, she never dies

F#m11                             Esus4
Wipe that tear away now from your eye

Asus2
 Slowly walking down the hall

Asus2/G
Faster than a cannonball

F#m11                                E
Where were you while we were getting high?


----------
-Chorus 2-
----------

                 A                          G
Someday you will find me caught beneath the landslide

     D/F#                       E
In a champagne supernova in the sky

                 A                          G
Someday you will find me caught beneath the landslide

     D/F#                   E
In a champagne supernova, a champagne supernova


----------
-Bridge 1-
----------

       G                                                  A
'Cause people believe that they're gonna get away for the summer

    G                               D              
But you and I, we live and die, the world's still spinning around

              E    E7             Asus2
We don't know why, why, why, why, why


---------------
-Guitar Solo 1-
---------------

[Part 1]

 Asus2   A7sus2/G F#m11  Esus4
e-------------------------------
B------5------5--------5------5-
G-4s6-----4s6------4s6----4s6---
D-------------------------------
A-------------------------------
E-------------------------------


[Part 2]

e-------------------------------------------          e-----------
B-------------------------------------------          B-------17~-
G-16b18r16-14----14----------------14-16-14-          G-16s18-----
D-------------16----16-------14-16---------- x3, then D-----------
A----------------------14-16----------------          A-----------
E-------------------------------------------          E-----------


[Part 3]

[Play this at the simultaneously with Part 2. If you have only one
guitar, leave this part out]

e-----------------------------          e-----------
B-----------------------------          B-----5---3-
G-4b6r4-2---2-----------2-4-2-          G-4s6---4---
D---------4---4-----2-4------- x3, then D-----------
A---------------2-4-----------          A-----------
E-----------------------------          E-----------


---------
-Verse 3-
---------

[Same as Verse 1, but the last chord is E, not Esus4]


----------
-Bridge 2-
----------

       G                                                  A
'Cause people believe that they're gonna get away for the summer

     A
e-------------------------------------------------------
B-20b22r20-17----20-20b22r20-17----17-------------------
G-------------19----------------19----19-17-------17-17-
D-------------------------------------------19-19-------
A-------------------------------------------------------
E-------------------------------------------------------

    G                               D              
But you and I, we live and die, the world's still spinning around

              E    E7             A
We don't know why, why, why, why, why


[Play this after the first "why"]

  E
e-----
B-----
G-----
D-7b8-
A-----
E-----


---------------
-Guitar Solo 2-
---------------

  A                    G
e--------------------------------------------------
B------------------------------------5-------------
G---b9r7-b9r7-b9r7-5-----5---5-7-7b9---9r7-5-7-5---
D--------------------7-----7---------------------7-
A--------------------------------------------------
E--------------------------------------------------

  F#m                     F         G
e-------------------------------------------
B-------------------------------------------
G-------5---5-----5-5-----------------------
D-----7---7---7-7-----7-------5-------------
A-----------------------5-5h7---7-5-5-3-5-0-
E-------------------------------------------

  A                         G                         F#m
e----------------------------------------------------------------------
B----------------------------------------------------------------------
G---------7b9-7b9-7b9r7-5-----------7b9-7b9-7b9r7-5-----------7b9~-7b9-
D-------------------------7-------------------------7------------------
A-3p0---0-------------------3p0---0-------------------3p0---0----------
E-----3-------------------------3-------------------------3------------

    F                        G    
e--------------------------------------
B--------------------------------------
G-7b9r7-9-9b11r9-10-10b12r10-12-12b14~-
D--------------------------------------
A--------------------------------------
E--------------------------------------

     A                             G
e-------------------------------------------------------------
B-------------------------------------------------------------
G-12b14-12b14r12-12b14-12b14r12-10b12-10b12r10-10b12-10b12r10-
D-------------------------------------------------------------
A-------------------------------------------------------------
E-------------------------------------------------------------

    F#m                     F          G
e---------------------------------------------
B---------------------------------------------
G-9b11-9b11r9-9b11-9b11r9-8b10~-8b10-7b9~-7b9-
D---------------------------------------------
A---------------------------------------------
E---------------------------------------------

 A
e-----------------------------------------
B-----------------------------------------
G-19b21-19b21~-19b21-19b21-19b21r19-17----
D--------------------------------------19-
A-----------------------------------------
E-----------------------------------------

  G                                         F#m
e-------------------------------------------------
B----------------20-------------------------------
G---19b21-19b21~----19b21-19b21r19-17----17----17-
D-------------------------------------19----19----
A-------------------------------------------------
E-------------------------------------------------

                    F              G
e-------------------------------------------------
B----------------17-17h18-17----------------------
G-17----------17-------------19-17-19-17----17----
D----19-17-19----------------------------19----19-
A-------------------------------------------------
E-------------------------------------------------

    F           G             F         G
e---------------------------------------------------
B-5-5h6-5---5---8-6-5h6p5---------------------------
G---------7---5-----------7-5-7-5-------------------
D---------------------------------7-7---------------
A-----------------------------------------------3-0-
E-------------------------------------0-3-0-5-0-----

    Asus2   Asus2/G F#m11   Esus4
e---------------------------------
B---------------------------------
G---------------------------------
D---------------------------------
A---------------------------------
E-3-5~-5s15-3~-3s15-2~-2s15-0~----
   

---------------
-Guitar Solo 3-
---------------

[Same as Guitar Solo 1, but without Part 1]


---------
-Verse 4-
---------

Asus2
How many special people change?

Asus2/G
How many lives are living strange?

F#m11                                Esus4                 Asus2
Where were you while we were getting high? We were getting high

                Asus2/G               F#m11
We were getting high, we were getting high

                Esus4                 Asus2
We were getting high, we were getting high

                Asus2/G               F#m11
We were getting high, we were getting high

                Esus2                 Asus2     Asus2/G     F#m11
We were getting high, we were getting high


-------
-Outro-
-------

  Fmaj7+11        G6              A+9
e--------------------------------------
B--------------------------------------
G-4h5-4-2-----2-2-4h5-4-2-2h4-2-2-4b6~-
D---------2h4--------------------------
A--------------------------------------
E--------------------------------------


*NOTE* During the second guitar solo, there are two or three
       guitars playing different things, making it almost
       impossible to tab. Instead, I've tabbed the solo that
       Noel plays live on the "Familiar to Millions" album.
       It's similar to what Paul Weller plays on 
       "(What's the Story) Morning Glory?" but it's all played 
       on one guitar. Easier to tab, easier to play.
       And it sounds better too. Also, the riffs during the
       second bridge are the ones played live.
       Everything else is from the studio version.


That's the song. Majestic, isn't it?





Comments


Popular Oasis tabs & chords
I Am The Walrus 1 Chords
Songbird 5 Chords
Cast No Shadow 1 Tabs
Fucking In The Bushes 1 Tabs
Guess God Thinks Im Able Tabs
I Am The Walrus Tabs
Live Forever 8 Tabs
Magic Pie Tabs
Talk Tonight 1 Tabs
Wonderwall Tabs


Song lyrics



↑ Back to top | Tablatures and chords are parodies/interpretations of the original songs. You may use it for private study, scholarship, research or language learning purposes only
© 2014 AZChords.com Contact us | Privacy policy | DMCA | Add/correct tabs | Request tabs | Top 50 tabs