» » »

Oasis, Bring It On Down Tabs (ver.3)

Artists:  A B C D E F G H I J K L M N O P Q R S T U V W X Y Z # 

Bring It On Down Tabs (ver.3)

Oasis Tabs
 Rating:
4/5 (4 votes)
Bring It On Down lessons Tabs too difficult? Try these video lessons and learn fast
1
                Solo 1 
1:30

e----------------------------------7--------------7----------
B------------------------------------------------------------
G-----7---7---7-9b11-7---7----9b11---9p7-9p7-9b11--9p7-9p7---
D-7h9---9---9----------9---9-------------------------------9-
A------------------------------------------------------------
E------------------------------------------------------------

e----------------------------------7-------------------------------
B-------------------------------------------------------10-12~~~~~-
G-----7---7---7-9b11-7---7----9b11---9p7-9p7-9-11-11-11------------
D-7h9---9---9----------9---9---------------------------------------
A------------------------------------------------------------------
E------------------------------------------------------------------

e-------------------------------------
B----12----10----10----9-7-9b11-9-7---
G-11----11-11-11----11-9-7-9b11-9-7---
D-----------------------------------9-
A-------------------------------------
E-------------------------------------


Solo 2
2:47
e----------------------------------7--------------7----------
B------------------------------------------------------------
G-----7---7---7-9b11-7---7----9b11---9p7-9p7-9b11--9p7-9p7---
D-7h9---9---9----------9---9-------------------------------9-
A------------------------------------------------------------
E------------------------------------------------------------

e----------------------------------7--------------------------
B-------------------------------------------------------10-12-
G-----7---7---7-9b11-7---7----9b11---9p7-9p7-9-11-11-11-------
D-7h9---9---9----------9---9----------------------------------
A-------------------------------------------------------------
E-------------------------------------------------------------

e-------10-------10-------10-------10-------10-
B-10-12----10-12----10-12----10-12----10-12----
G----------------------------------------------
D----------------------------------------------
A----------------------------------------------
E----------------------------------------------

e-------10-------10-------10-------10-------10-
B-10-12----10-12----10-12----10-12----10-12----
G----------------------------------------------
D----------------------------------------------
A----------------------------------------------
E----------------------------------------------

e-10-12-10-10-10-12-10--10-12-10-10-10-12-10-
B-10-10-10-10-10-10-10--10-10-10-10-10-10-10-
G--------------------------------------------
D--------------------------------------------
A--------------------------------------------
E--------------------------------------------

e------------------------------------------------------------------------
B-9b11-7-----------------------------------------9b11-(11)-(11)-(11)-7---
G-9b11-7-------7---------7b8---------7b8---------9b11-(11)-(11)-(11)-7---
D--------9-7-9---9-9-7-9-----9-9-7-9-----9-9-7-9-----------------------9-
A------------------------------------------------------------------------
E------------------------------------------------------------------------

e------------------------------------------------------------------------
B-9b11-7-----------------------------------------9b11-(11)-(11)-(11)-7---
G-9b11-7-------7---------7b8---------7b8---------9b11-(11)-(11)-(11)-7---
D--------9-7-9---9-9-7-9-----9-9-7-9-----9-9-7-9-----------------------9-
A------------------------------------------------------------------------
E------------------------------------------------------------------------

You should be able to figure it out from here as I cant be arsed.
Its mainly just the same riffs altered slightly.
            
Submit corrections

comments powered by Disqus
↑ Back to top | Oasis Tabs for Bring It On Down. Lyrics for acoustic guitar and electric guitar. 1 Tablatures and chords are parodies/interpretations of the original songs. You may use it for private study, scholarship, research or language learning purposes only