>
 >
Boy With The Blues 2

Boy With The Blues 2 Guitar Tabs

Oasis - Boy With The Blues 2 chords, tabs, tablatures, lyrics

Guitar lessons | Add/correct | Request | Top 50 tabs Artists:  A B C D E F G H I J K L M N O P Q R S T U V W X Y Z 0-9

Boy With The Blues 2 Guitar Tabs – Oasis

CD, Sheet music, Poster

Do you like Boy With The Blues 2? Share with your friends now
ChordsChords v2Chords v3Chords v4TabsTabs v2Ukulele
----------------------------------------------------------------------------
                        Boy With The Blues (solo) - Oasis
----------------------------------------------------------------------------

Tuning: Standard


    This is tht little solo that takes place in the song.

  2:51  -  2:55

e|--------------------------|
B|--------------------------|
G|--p6--6--4--6--4----------|
D|------------------4--6----|
A|--------------------------|
E|--------------------------|

  2:57  -  3:09

e|----------------------------------------------------------------|
B|----------------------------------------------------------------|
G|--p6--6--4--6--4-------p6--6--4--6--4------p6--6--4--6-4--------|
D|----------------------------------------------------------4--6--|
A|----------------------------------------------------------------|
E|----------------------------------------------------------------|


     Im pretty sure its easy to understand that, when u listen to the song, its easy to 
the rhythm. It might not be the best solo, but its ok i guess, and very easy for 
so let me no if there is anything wrong.





Comments


Popular Oasis tabs & chords
All Around The World 2 Chords
Dont Look Back In Anger 2 Chords
Round Are Way Chords
All Around The World 1 Tabs
Going Nowhere Tabs
Shes Electric 3 Tabs
Stand By Me Tabs
Underneath The Sky' 2 Tabs
Fade Away Ukulele
Listen Up 2 Ukulele


Song lyrics



↑ Back to top | Tablatures and chords are parodies/interpretations of the original songs. You may use it for private study, scholarship, research or language learning purposes only
© 2014 AZChords.com Contact us | Privacy policy | DMCA | Add/correct tabs | Request tabs | Top 50 tabs