» » »

Be Here Now Bass tabs (ver.1)

Artists:  A B C D E F G H I J K L M N O P Q R S T U V W X Y Z # 

Be Here Now Bass tabs (ver.1)

Oasis
Rating:
5/5 (1 vote)

Hard to play? Try these video lessons and learn fast.
                Oasis - Be Here Now

Written by Noel Gallagher

normal tuning -eadg- low to high

symbols:
/ = slide up
\ = slide down


Intro
----------------------------------------------------------------------
----------------------------------------------------------------------
------------------------------------------------------4-4-4-4---------
--5-7-7-7-7-7-7-7-5/7-7-7-7-7-7-7-7-5/7-7-7-7-7-7-7-7---------5-5-5-5-

------------------------------------------------------------------------
------------------------------------------------------------------------
--------------------------------------------------------4-4-4-4---------
--5/7-7-7-7-7-7-7-7-5/7-7-7-7-7-7-7-7-5/7-7-7-7-7-7-7-7---------5-5-5-5-

Here's a variation for the intro and for the verse's (I suggest this)
------------------------------------------------------------------------
------------------------------------------------------------------------
--------------------------------------------------------4-4-4-4---------
--5/7-7-7-7-7-5-7-5-5/7-7-7-7-7-5-7-5-5/7-7-7-7-7-7-7-7---------5-5-5-5-

Verse
 Wash your face in the morning sun...
------------------------------------------------------------------------
------------------------------------------------------------------------
--------------------------------------------------------4-4-4-4---------
--5/7-7-7-7-7-7-7-7-5/7-7-7-7-7-7-7-7-5/7-7-7-7-7-7-7-7---------5-5-5-5- repeat

 Wrap up cold when it's warm outside...
------------------------------------------------------------------------
------------------------------------------------------------------------
--------------------------------------------------------4-4-4-4---------
--5/7-7-7-7-7-7-7-7-5/7-7-7-7-7-7-7-7-5/7-7-7-7-7-7-7-7---------5-5-5-5- repeat

Chorus
 Kickin' up a storm...
--------------------------------------------------------------------
--------------------------------------------------------------------
--------------------------------------------------------------------
--0-0-0-0-0-0-0-2-3-3-3-3-/5-5-5-2-0-0-0-0-0-0-0-2-3-3-3-3-/5-5-5-2-

----------------------------------------------------------------------
----------------------------------------------------------------------
----------------------------------------------------------------------
--0-0-0-0-0-0-0-2-3-3-3-3-/5-5-5-5-\3-3-3-3-3-3-3-3-/5-5-5-5-/6-6-6-6-

Intro again

Verse
 So wash your face in the morning sun...
----------------------------------------------------------------------
----------------------------------------------------------------------
------------------------------------------------------4-4-4-4---------
--5/7-7-7-7-7-7-7-5/7-7-7-7-7-7-7-7-5/7-7-7-7-7-7-7-7---------5-5-5-5- repeat

Chorus
 Kickin' up a storm...
--------------------------------------------------------------------
--------------------------------------------------------------------
--------------------------------------------------------------------
--0-0-0-0-0-0-0-2-3-3-3-3-/5-5-5-2-0-0-0-0-0-0-0-2-3-3-3-3-/5-5-5-2-

 Sing a song for me one from 'Let It Be'                           in-
----------------------------------------------------------------------
----------------------------------------------------------------------
----------------------------------------------------------------------
--0-0-0-0-0-0-0-2-3-3-3-3-/5-5-5-5-\3-3-3-3-3-3-3-3-/5-5-5-5-/6-6-6-6-

 Solo
 -side                            inside                  get a grip in-
|------------------------------------------------------------------------------
|------------------------------------------------------------------------------
|------------------------------------------------------------------------------
|--5/7-7-7-7-7-7-7-7-5/7-7-7-7-7-7-7-7-5-5-5-5-5-5-5-5-/12-12-12-12-12-12-12-9-
  -side               get a grip        inside                    you betcha
----------------------------------------------------------------------------|
----------------------------------------------------------------------------|
----------------------------------------------------------------------------|
--7-7-7-7-7-7-7-7-5/7-7-7-7-7-7-7-7-5-5-5-5-5-5-5-5-/12-12-12-12-12-12-12-9-| x2

Solo variation 1
--------------------------------------------------------------------------
--------------------------------------------------------------------------
--------------------------------------------------------------------------
--5/7-7-7-7-7-7-7-7-5/7-7-7-7-7-7-7-7-5-5-5-5-5-5-5-5-0-0-0-0-/12-12-12-9-

Solo variation 2
------------------------------------------------------------------------------
------------------------------------------------------------------------------
------------------------------------------------------------------------------
--5/7-7-7-7-7-7-7-7-5/7-7-7-7-7-7-7-7-5-5-5-5-5-5-5-5-/12-12-12-12-12-10-10-9-


Play verse
Play chorus

The end 3.40 (same as solo)                              get a grip in-
--------------------------------------------------------------------------
--------------------------------------------------------------------------
--------------------------------------------------------------------------
--5/7-7-7-7-7-5-7-5-5/7-7-7-7-7-5-7-7-5-5-5-5-5-5-5-5-0-0-0-0-10/12-12-12-
 -side                         get a grip inside  get a grip inside
--------------------------------------------------------------------
--------------------------------------------------------------------
------------------------------------------------------------7-5-5-4-
--7-7-7-7-7-5-7-5-5/7-7-7-7-7-5-7-7-5-5-5-5-5-5-5-5-0-0-0-0---------
                                                       kmmm  you betcha
-----------------------------------------------------------------------------
-----------------------------------------------------------------------------
-----------------------------------------------------------------------------
--7-7-7-7-7-5-7-5-5/7-7-7-7-7-5-7-7-5-5-5-5-5-5-5-5-/12-12-12-12-10-12-12-12-

--------------------------------------------------------------------
--------------------------------------------------------------------
------------------------------------------------------------7-5-5-4-
--7-7-7-7-7-7-7-7-5/7-7-7-7-7-7-7-7-5-5-5-5-5-5-5-5-0-0-0-0---------
 c'mon c'mon  c'mon c'mon  c'mon c'mon  c'mon           yeah yeah
---------------------------------------------------------------------------
---------------------------------------------------------------------------
---------------------------------------------------------------------------
--7-7-7-7-7-7-7-7-5/7-7-7-7-7-7-7-7-5-5-5-5-5-5-5-5-0-0-0-0-10/12-12-12-12-
  yeah                  yeah yeah yeah                  yeah yeah
-------------------------------------------------------------------
-------------------------------------------------------------------
--------------------------------------------------------7-5--7-5-4-
--7-7-7-7-7-7-7-7-5/7-7-7-7-7-7-7-7-5-5-5-5-5-5-5-5-0-0------------
  yeah                 yeah yeah yeah
--------------------------------------------------------------------
--------------------------------------------------------------------
--------------5-7-------------5-7---------5/12-12-12-12-------------
--7-7-7-7-7-7-----7-7-7-7-7-7-----5-5-5-5---------------12-12-12-12-
      c'mon c'mon  c'mon c'mon  c'mon c'mon  c'mon c'mon
-------------------------------------------------------------------
-------------------------------------------------------------------
-------------------------5-7-------------5-7---------5/12-12-12-12-
--12-10-10-9-7-7-7-7-7-7-----7-7-7-7-7-7-----5-5-5-5---------------

---------------------------------------------------------------------
---------------------------------------------------------------------
----------7-5-5-4--------------------------------7--5----------------
--0-0-0-0---------7------7--5----5--3--2--0------------------0/7----\
            
Hard to play? Try these video lessons and learn fast. | Correct




comments powered by Disqus
↑ Back to top | Tablatures and chords are parodies/interpretations of the original songs. You may use it for private study, scholarship, research or language learning purposes only