» » »

Sweet Sweet Thing Ukulele Chords (ver.1)

Artists:  A B C D E F G H I J K L M N O P Q R S T U V W X Y Z # 

Sweet Sweet Thing Ukulele Chords (ver.1)

Mxpx
Rating:
0/5 (0 votes)

Tabs too difficult? Try these video lessons and learn fast.
                -----------------------------------------------------------------
Sweet, Sweet Thing - MXPX
-----------------------------------------------------------------
Tuning: Standard

[ intro/verse]

E]--3-3--3--3---3--------------------------------------------------------------|
A]-----5------5----3-3-3---3---3--5-5---5---5---5--3-3---3---3---3-------------|
D]--------5-----------5------5--------7-------7--------5-------5---------------|
G]-----------------------5----------------7----------------5-------------------|
B]-----------------------------------------------------------------------------|
e]-----------------------------------------------------------------------------|


I finally met her parents on a saturday night
They gave me the eye wouldn't let me out of there sight
They didn't like the looks of me right away
They told me to go so I decided to stay

play between verses
A] 3-2-0

My eyes were brown and my hair was blue
Of course they had a problem with my tattoos
I can't please everybody all the time
So right now all I wanna do is make you mine

        G           D
Your my sweet sweet thing
        E           C
Your my sweet sweet thing
        G           D
Your my sweet sweet thing
          C
On top of everything

Her dad asked what I did I said I played in band
He said he hated devil music and he wasn't a fan
Musicians can't be trusted and your job is a joke
I don't want my daughter spending her life broke

Well after that I didn't really know what to say
So i said i think I'll date your daughter anyway
I can't please everybody all the time
So right now all I wanna do is make you mine

Your my sweet sweet thing
Your my sweet sweet thing
Your my sweet sweet thing
On top of everything

A
So now I think it's time to make my way to the door
E
But be sure tomorrow night I'll be back for more
G
I can't please everybody all the time
D                              C
So right now all I wanna do is make you mine

G                                D       C
Your dad can't stand me and your moms in shock
G                                      D           C
Your brother wants to kill me and your sister won't talk
E                             A
I got the whole dinner table talking about my hair
C                         D
But I don't really care, it's just a family affair


Your my sweet sweet thing
Your my sweet sweet thing
Your my sweet sweet thing
On top of everything

Your my sweet sweet thing
Your my sweet sweet thing
Your my sweet sweet thing
On top of everything
            
Tabs too difficult? Try these video lessons and learn fast.




comments powered by Disqus
↑ Back to top | Tablatures and chords are parodies/interpretations of the original songs. You may use it for private study, scholarship, research or language learning purposes only