» » »

A Quick Peep Bass tabs (ver.1)

Artists:  A B C D E F G H I J K L M N O P Q R S T U V W X Y Z # 

A Quick Peep Bass tabs (ver.1)

Oasis
Rating:
3/5 (2 votes)

Hard to play? Try these video lessons and learn fast.
                Oasis - A Quick Peep


symbols:

/ = slide up
b = bend

main riff one
------------------
------------------
--5--5--5-------3-
-----------3-5---- play for a while

main riff two
------------------------
--12--12--12---------10-
--------------10-12-----
------------------------ play for a while

lead up one (NOTE: play all notes you see meaning the -5/12-)
--------------
-------12-----
--5/12-----12-
--------------
lead up two (NOTE: play all notes you see meaning the -5/12-)
--------------
-------10-----
--5/12-----12-
--------------

riff one
----------------------------
--12--12--12-11-10-12-11-10-
----------------------------
----------------------------
riff two (variation to riff one)
----------------------------
--12--12--12-11-10----------
-------------------12-11-10-
----------------------------

play riff two while going from main riff two to main riff one
----------------------------
--12--12--12-11-10----------
-------------------12-11-10-
----------------------------
variation
---------------------------
--12--12--12-10------------
----------------12-10------
----------------------12-8-

during main riff one play lead up one and then back to riff one
--------------
-------12-----
--5/12-----12-
--------------

play lead up two while going from riff one to riff two

during main riff two play riff one

the end
----------------------------------
--12--12--12-11-10----------------
-------------------12-11-10-------
----------------------------10----

---------------------------------------
--12--10-------------------------------
----------12--10-----------------------
------------------12--8-10--7-8--10----
variation one
---------------------------------------
--12--10-------------------------------
----------12--10-----------------------
------------------12--7-8--3-5-/-10----
variation two
----------------------------------------
--12--10--------------------------------
----------12--10------------------------
------------------12--0-8b--0-7b--10----
variation three
---------------------------------------
--12--10-------------------------------
----------12--10-----------------------
------------------12--0-5b--7-8--10----
            
Hard to play? Try these video lessons and learn fast. | Correct




comments powered by Disqus
↑ Back to top | Tablatures and chords are parodies/interpretations of the original songs. You may use it for private study, scholarship, research or language learning purposes only