» » »

All Around The World Tabs (ver.4)

Artists:  A B C D E F G H I J K L M N O P Q R S T U V W X Y Z # 

All Around The World Tabs (ver.4)

Oasis
Rating:
5/5 (1 vote)
Tabs too difficult? Try these video lessons and learn fast.
                      ALL AROUND THE WORLD (REPRISE)
                              As recorded by Oasis
                        (From the 1997 Album BE HERE NOW)

Words and Music by Noel Gallager
           D                   E/D                  G/D                   E
      x x 0 2 3 2          x x 0 4 5 4          x x 0 0 3 3          0 2 2 1 0 0

           G                   D5                   E5                   G5
      3 2 0 0 3 3          x x 0 2 3 x          0 2 2 x x x          3 5 5 x x x

         Dsus4                  A
      x x 0 2 3 3          x 0 2 2 2 0

Gtr I (E A D G B E) - 'trumpet'
Gtr II (E A D G B E) - 'trumpet'
Gtr III (E A D G B E) - 'acousic'
Gtr IV (E A D G B E) - 'brass'
Gtr V (E A D G B E) - 'elec w/ distortion'

 Trumpet intro
  Q=82
  D
 4/4
  Gtr III
  E     E     E     S  S  S  S E   E   E
  |     |     |     |  |  |  | |   |   |
  /     /     /     /  /  /  / /   /   /

  Gtrs I, II
  S  S  S  S  S  S  S  S  Q.           E
|------10-12-14-12-10-12-10--------2-------|
|---10-------------------------3-5---5-3-5-|
|----------------------------2-------------|
|------------------------------------------|
|------------------------------------------|
|------------------------------------------|
  H                       S  S S S S S S S


  E/D
  E      E     E     S  S  S  S E   E   E
  |      |     |     |  |  |  | |   |   |
  /      /     /     /  /  /  / /   /   /

  S   S  S  S  S  S  S  S  Q.           E
|-------10-12-14-12-10-12-10--------2-------|
|-3--10-------------------------3-5---5-3-5-|
|-----------------------------2-------------|
|-------------------------------------------|
|-------------------------------------------|
|-------------------------------------------|
  Q.                 E     S  S S S S S S S


  G/D                                         D
  E      E     E     S  S  S  S E   E   E     E E E S S S S E E E
  |      |     |     |  |  |  | |   |   |     | | | | | | | | | |
  /      /     /     /  /  /  / /   /   /     / / / / / / / / / /

  S   S  S  S  S  S  S  S  Q.           E     W
|-------10-12-14-12-10-12-10--------2-------|---------------------||
|-3--10-------------------------3-5---5-3-5-|-3-------------------||
|-----------------------------2-------------|---------------------||
|-------------------------------------------|---------------------||
|-------------------------------------------|---------------------||
|-------------------------------------------|---------------------||
  Q.                 E     S  S S S S S S S   W


   Brass section
    D                       E
    Gtr III
    E  E E S S S S E  E E   E E E S S  S  S E E E
    |  | | | | | | |  | |   | | | | |  |  | | | |
    /  / / / / / / /  / /   / / / / /  /  / / / /

    Gtr IV
    Q.     E   E   Q.       e Q   E   +Q      E E
||--2---------------------|---2-------------------|
||o--------5-------3------|-5-------------------3-|
||------------------------|-------4---(4)-----4---|
||------------------------|-----------------------|
||o-----------------------|-----------------------|
||------------------------|-----------------------|


  G                       D
   E  E E S S S S E E E    E  E E S S S S E E E
   |  | | | | | | | | |    |  | | | | | | | | |
   /  / / / / / / / / /    /  / / / / / / / / /

  +Q    E E   e   Q   E   +W
|-------------2---2-----|------------------------||
|-(3)-----------------3-|-(3)-------------------o||
|-------4-2-------------|------------------------||
|-----------------------|------------------------||
|-----------------------|-----------------------o||
|-----------------------|------------------------||


   Main score 1
    D5
    Gtr V
    E      E     E     E     E    E    E   E
    |      |     |     |     |    |    |   |
    /      /     /     /     /    /    /   /

    Gtr IV
    Q.                 E     E    Q.
||--2------------------------------------------|
||o--------------------5----------3------------|
||---------------------------------------------|
||---------------------------------------------|
||o--------------------------------------------|
||---------------------------------------------|
|
|   Gtrs I, II
|   S   S  S  S  S  S  S  S  Q.            E
||--------10-12-14-12-10-12-10---------2-------|
||o----10-------------------------3--5---5-3-5-|
||------------------------------2--------------|
||---------------------------------------------|
||o--------------------------------------------|
||---------------------------------------------|
    H                        S  S S  S S S S S


  E5
  E     E     E     E     E    E   E   E
  |     |     |     |     |    |   |   |
  /     /     /     /     /    /   /   /

  e     Q           E    +Q        E   E
|-------2----------------------------------|
|-5------------------------------------3---|
|-------------------4----(4)-------4-------|
|------------------------------------------|
|------------------------------------------|
|------------------------------------------|
|
| S  S  S  S  S  S  S  S  Q.           E
|------10-12-14-12-10-12-10--------2-------|
|---10-------------------------3-5---5-3-5-|
|----------------------------2-------------|
|------------------------------------------|
|------------------------------------------|
|------------------------------------------|
  H                       S  S S S S S S S


  G5                                           D5
   E      E     E     E     E    E   E   E      E  E E E E E E E
   |      |     |     |     |    |   |   |      |  | | | | | | |
   /      /     /     /     /    /   /   /      /  / / / / / / /

  +Q            E     E     e    Q       E     +W
|---------------------------2----2-----------|--------------------||
|-(3)------------------------------------3---|-(3)---------------o||
|---------------4-----2----------------------|--------------------||
|--------------------------------------------|--------------------||
|--------------------------------------------|-------------------o||
|--------------------------------------------|--------------------||
|
|  S   S  S  S  S  S  S  S  Q.           E      W
|--------10-12-14-12-10-12-10--------2-------|--------------------||
|-----10-------------------------3-5---5-3-5-|--3----------------o||
|------------------------------2-------------|--------------------||
|--------------------------------------------|--------------------||
|--------------------------------------------|-------------------o||
|--------------------------------------------|--------------------||
   H                        S  S S S S S S S    W


 Main Score 2
  D
  Gtr V
  E      E     E     E     E    E    E   E
  |      |     |     |     |    |    |   |
  /      /     /     /     /    /    /   /

  Gtrs I, II
  S   S  S  S  S  S  S  S  Q.            E
|-------10-12-14-12-10-12-10---------2-------|
|----10-------------------------3--5---5-3-5-|
|-----------------------------2--------------|
|--------------------------------------------|
|--------------------------------------------|
|--------------------------------------------|
| H                        S  S S  S S S S S
|
| Gtr IV
| Q.                 E     E    Q.
|-2------------------------------------------|
|--------------------5----------3------------|
|--------------------------------------------|
|--------------------------------------------|
|--------------------------------------------|
|--------------------------------------------|


  E
  E      E     E     E     E    E   E   E
  |      |     |     |     |    |   |   |
  /      /     /     /     /    /   /   /

  S   S  S  S  S  S  S  S  Q.           E
|----12----12----12----12-----------2-------|
|-3-----12----12----12----12----3-5---5-3-5-|
|-----------------------------2-------------|
|-------------------------------------------|
|-------------------------------------------|
|-------------------------------------------|
| Q.                 E     S  S S S S S S S
|
| e      Q           E    +Q        E   E
|--------2----------------------------------|
|-5-------------------------------------3---|
|--------------------4----(4)-------4-------|
|-------------------------------------------|
|-------------------------------------------|
|-------------------------------------------|


  G
   E      E     E     E     E    E   E   E
   |      |     |     |     |    |   |   |
   /      /     /     /     /    /   /   /

   S   S  S  S  S  S  S  S  Q.           E
|--------10-12-14-12-10-12-10--------2-------|
|--3--10-------------------------3-5---5-3-5-|
|------------------------------2-------------|
|--------------------------------------------|
|--------------------------------------------|
|--------------------------------------------|
|  Q.                 E     S  S S S S S S S
|
| +Q            E     E     e    Q       E
|---------------------------2----2-----------|
|-(3)------------------------------------3---|
|---------------4-----2----------------------|
|--------------------------------------------|
|--------------------------------------------|
|--------------------------------------------|


  D
   E      E   E     E   E   E    E    E
   |      |   |     |   |   |    |    |
   /      /   /     /   /   /    /    /

   S   S  S S S  S  S S H
|--------10--------10--------------------|
|--3--10--------10-----------------------|
|-------------------------2---4-(4)-2----|
|-----------------------4-------------4--|
|----------------------------------------|
|----------------------------------------|
|  Q.               E   S E   S +S  S E
|
| +W
|----------------------------------------|
|-(3)------------------------------------|
|----------------------------------------|
|----------------------------------------|
|----------------------------------------|
|----------------------------------------|


  E      E     E     E     E    E     E    E
  |      |     |     |     |    |     |    |
  /      /     /     /     /    /     /    /

  S   S  S  S  S  S  S  S  Q.              E
|-------10-12-14-12-10-12-10-----------------|
|----10--------------------------------------|
|-----------------------------2----4-(4)-2---|
|-0------------------------4---------------4-|
|--------------------------------------------|
|--------------------------------------------|
| H                        S  E    S +S  S E
|
| Q.                 E     E    Q.
|-2------------------------------------------|
|--------------------5----------3------------|
|--------------------------------------------|
|--------------------------------------------|
|--------------------------------------------|
|--------------------------------------------|


  E
  E     E     E     E     E    E    E    E
  |     |     |     |     |    |    |    |
  /     /     /     /     /    /    /    /

  S  S  S  S  S  S  S  S  Q.             E
|------10-12-14-12-10-12-10----------------|
|---10-----------------------0---2-(2)-0---|
|-------------------------1--------------1-|
|-2----------------------------------------|
|------------------------------------------|
|------------------------------------------|
| H                       S  E   S +S  S E
|
| e     Q           E    +Q         E    E
|-------2----------------------------------|
|-5--------------------------------------3-|
|-------------------4----(4)--------4------|
|------------------------------------------|
|------------------------------------------|
|------------------------------------------|


  G                                     A
   E      E     E     E     E E  E  E     E      E     E     E     E E E E
   |      |     |     |     | |  |  |     |      |     |     |     | | | |
   /      /     /     /     / /  /  /     /      /     /     /     / / / /

   S   S  S  S  S  S  S  S  Q    E  E    +S   S  S  S  S  S  S  S  H
|--------10-12-14-12-10-12-10---------|---------10-12-14-12-10-12-10-------|
|-----10------------------------12-10-|-(10)-10----------------------------|
|--0----------------------------------|------------------------------------|
|-------------------------------------|------------------------------------|
|-------------------------------------|------------------------------------|
|-------------------------------------|------------------------------------|
|  H                        H             W
|
| +Q            E     E     e Q     E    +W
|---------------------------2-2-------|------------------------------------|
|-(3)-------------------------------3-|--(3)-------------------------------|
|---------------4-----2---------------|------------------------------------|
|-------------------------------------|------------------------------------|
|-------------------------------------|------------------------------------|
|-------------------------------------|------------------------------------|


                 Outro
  D               D     Dsus4
    W             W
    |
    /

                  Gtr III
   +W             Q  Q  E. S +E  E
|-(10)--------||--2--2--3--3-(3)-3--||
|-------------||o-3--3--3--3-(3)-3-o||
|-------------||--2--2--2--2-(2)-2--||
|-------------||--0--0--0--0-(0)-0--||
|-------------||o------------------o||
|-------------||--------------------||
    W


Duration Legend
---------------
W - whole; H - half; Q - quarter; E - 8th; S - 16th; T - 32nd; X - 64th; a - acciaccatura
+ - note tied to previous; . - note dotted; .. - note double dotted
Uncapitalized letters represent notes that are staccato (1/2 duration)
Irregular groupings are notated above the duration line
Duration letters will always appear directly above the note/fret number it represents the
duration for.  Duration letters with no fret number below them represent rests.  Multi-
bar rests are notated in the form Wxn, where n is the number of bars to rest for.  Low
melody durations appear below the staff

Tablature Legend
----------------
 h   - hammer-on
 p   - pull-off
 b   - bend
 pb  - pre-bend
 r   - bend release (if no number after the r, then release immediately)
 /\  - slide into or out of (from/to "nowhere")
 s   - legato slide
 S   - shift slide
  - natural harmonic
[n]  - artificial harmonic
n(n) - tapped harmonic
 ~   - vibrato
 tr  - trill
 T   - tap
 TP  - trem. picking
 PM  - palm muting
\n/  - tremolo bar dip; n = amount to dip
 \n  - tremolo bar down
 n/  - tremolo bar up
/n\  - tremolo bar inverted dip
 =   - hold bend; also acts as connecting device for hammers/pulls
 <>  - volume swell (louder/softer)
 x   - on rhythm slash represents muted slash
 o   - on rhythm slash represents single note slash

Misc Legend
-----------
 |  - bar
||  - double bar
||o - repeat start
o|| - repeat end
*|  - double bar (ending)
 :  - bar (freetime)
 $  - Segno
 &  - Coda
Tempo markers -  = BPM(8/16=s8/s16), where s8 = swing 8ths, s16 = swing 16ths
            
Tabs too difficult? Try these video lessons and learn fast.


comments powered by Disqus
↑ Back to top | Tablatures and chords are parodies/interpretations of the original songs. You may use it for private study, scholarship, research or language learning purposes only