» » »

Acquiesce Bass tabs (ver.2)

Artists:  A B C D E F G H I J K L M N O P Q R S T U V W X Y Z # 

Acquiesce Bass tabs (ver.2)

Oasis
Rating:
4/5 (2 votes)

Hard to play? Try these video lessons and learn fast.
                Intro + Verse

G|---------------------------------------------------------------------------|
D|---------------------------------------------------------------------------|
A|----------------------5-5--------------------------------------------------|
E|---5-5-5-5-5-5-5-5---------3-3-3-3-----------------------------------------|

Chorus

G|---------------------------------------------------------------------------|
D|--3-3----------------------------------------------------------------------|
A|------3-3------------------------------------------------------------------|
E|----------3-3-3-3-3--------------------------------------------------------|
            
Hard to play? Try these video lessons and learn fast. | Correct




comments powered by Disqus
↑ Back to top | Tablatures and chords are parodies/interpretations of the original songs. You may use it for private study, scholarship, research or language learning purposes only