» » »

Whose Chariot Bass tabs (ver.2)

Artists:  A B C D E F G H I J K L M N O P Q R S T U V W X Y Z # 

Whose Chariot Bass tabs (ver.2)

O.A.R.
Rating:
0/5 (0 votes)

Hard to play? Try these video lessons and learn fast.
                G----------------------|
D-----5-------2--------|
A-------5--------3-2-0-|
E-3--------------------|

or

G----------------------|
D-----5-------2--------|
A-------5--------3-----|
E-3--------------------|

In the second tab, you would immediately mute the string. In the first tab, you let the 
ring.

I am almost 100% sure this is correct, and it is played in the G major scale. This 
is repeated throughout the whole song.
            
Hard to play? Try these video lessons and learn fast. | Correct




comments powered by Disqus
↑ Back to top | Tablatures and chords are parodies/interpretations of the original songs. You may use it for private study, scholarship, research or language learning purposes only