» » »

Untitled Tabs (ver.1)

Artists:  A B C D E F G H I J K L M N O P Q R S T U V W X Y Z # 

Untitled Tabs (ver.1)

O.A.R.
Rating:
0/5 (0 votes)

Hard to play? Try these video lessons and learn fast.
                E--0-----2------3------0------0------2--------]
B--0-----3------3------1------0------3--------]
G--0-----2------0------0------0------2--------]
D--2-----0------0------2------2------0--------]
A--2-----0------2------3------2------0--------]
E--0-----0------3------0------0------0--------]

Intro chords: Em,D,G,C,Em,D
Play bar chords and repeat the progression 2 times.
Then the scratching before the tempo slows down and is just a muted Em bar chord
Verse and Chorus chords: Em,D,G,C,Em,D
Bridge Chords: G,C,Em,D

Bridge:
E--3------0------0------2-------]
B--3------1------0------3-------]
G--0------0------0------2-------]
D--0------2------2------0-------]
A--2------3------2------0-------]
E--3------0------0------0-------]
            
Hard to play? Try these video lessons and learn fast. | Correct




comments powered by Disqus
↑ Back to top | Tablatures and chords are parodies/interpretations of the original songs. You may use it for private study, scholarship, research or language learning purposes only