» » »

O.A.R., This Town Tabs (ver.2)

Artists:  A B C D E F G H I J K L M N O P Q R S T U V W X Y Z # 

This Town Tabs (ver.2)

O.A.R. Tabs
 Rating:
4/5 (4 votes)
This Town lessons Tabs too difficult? Try these video lessons and learn fast
                
Im pretty sure this is 100% Correct.  Good Luck


INTRO

E|--------4----------------------------------|
B|----------7--4h5p4---4--4h5p4---4----------|
G|--4-4-4------------6----------6---6--4-----| Repeat
D|----------------------------------------6--|
A|-------------------------------------------|
E|-------------------------------------------|

VERSE

E|------------------------|
B|------------------------|
G|--1--0--4--0------------|
D|--2--0--4--0--6--0--4---|
A|--2--0--2--0--6---0--4--|
E|-----0-----0--4---0--2--|

In the morning wake me up And tell me everything 
So I can understand your world And you can understand my dream 
Yeah I could be anywhere And you could be there with me 
But I just want to be a ghost And see everything

Listen to the song for the rythm and play an open chord between chord changes.

PRE CHORUS

E|---------------|
B|---------------|
G|---------------|
D|--2--4--6--8---|
A|--2--4--6--8---|
E|-----2--4--6---|
I don't want it to be the way they want it 

CHORUS

E|--------------|
B|--------------|
G|--4--6--1-----|2X
D|--4--6--2--4--|
A|--2--4--2--4--|
E|-----------2--|

This Town, this night, this crowd Come on put them up, let me hear it loud 
This Town, this city, this crowd Stand up on your feet put your worry down 

E|--------------|
B|--------------|
G|--------1-----|2X
D|--6--4--2--4--|
A|--6--4--2--4--|
E|--4--2-----2--|
And everyone of you all around Come on ya'll let's take this town 


BRIDGE

E|------------------------
B|------------------------
G|--1--4--6-----1---------
D|--2--4--6--4--2--6--4---
A|--2--2--4--4--2--6--4---
E|-----------2-----4--2---
"On our own let's get away Nothing more left here to see 
Come on love make it perfect More and more I will believe 
Like a child I must believe Come on ya'll make it perfect" 
            
Submit corrections

comments powered by Disqus
↑ Back to top | O.A.R. Tabs for This Town. Lyrics for acoustic guitar and electric guitar. Tablatures and chords are parodies/interpretations of the original songs. You may use it for private study, scholarship, research or language learning purposes only