» » »

O.A.R., That Was A Crazy Game Of Poker Bass tabs (ver.1)

Artists:  A B C D E F G H I J K L M N O P Q R S T U V W X Y Z # 

That Was A Crazy Game Of Poker Bass tabs (ver.1)

O.A.R. Tabs
Rating:
0/5 (0 votes)
Hard to play? Try these video lessons and learn fast.
                
For My Boy Mitch† and His Girl and My Boy Lincoln and "J-Dogg"

The open E in the both the verses very well may be a C on the 3rd string, either one sounds good but the C on 3 is the correct. You be the judge but don't cry.

Verse Alt 1
1|-----------------------------------------------------------|
2|--------------------------------------------0--1--0--------|
3|--------------------------------0--0--0--3-----------3--0--|
4|--0--0--0--0--0--3--3--3--3--3-----------------------------|
5|-----------------------------------------------------------|

Verse Alt 1 Continued
1|-----------------------------------------------------------|
2|--------------------------------------------------3--2--0--|
3|--------------------------------0--0--0--0--0--------------|
4|--0--0--0--0--0--3--3--3--3--3-----------------1-----------|
5|-----------------------------------------------------------|

Verse Alt 2
1|--------------------------------------------------------------|
2|--------------------------------------------------------------|
3|--------------------------------0--0--0--0--0-----------------|
4|--0--0--0--0--0--3--3--3--3--3-----------------1--1--1--1--1--|
5|--------------------------------------------------------------|

Bridge
1|-----------------------------------------|
2|-----------------------------------------|
3|-----------------------------------------|
4|--3--5--5--5--3--5--5--5--3--5--5--5--5--|
5|-----------------------------------------|

Chorus Alt 1
1|------------------------------------------------------|
2|-----2--3--5------------------------2--------3--2--0--|
3|--3----------------2--3--5--0--3-------3--------------|
4|--------------3---------------------------1-----------|
5|------------------------------------------------------|

Chorus Alt 2
1|--------------------------------------------------|
2|--------------------------------------------------|
3|--3--3--3--3--------------0--0--0--0--------------|
4|--------------3--3--3--3--------------1--1--1--1--|
5|--------------------------------------------------|

Chorus Alt 3
1|--------------------------|
2|--------------------------|
3|--3--3--------0--0--------|
4|--------3--3--------1--1--|
5|--------------------------|

Breakdown
1|-----------------------------------------------------------------|
2|-----------2--5-----------------------------------------3--2--0--|
3|--3--3--3-----------------2--5--0--0--0--3--3--0-----------------|
4|-----------------3--3--3--------------------------1--1-----------|
5|-----------------------------------------------------------------|

~*~Song Structure~*~
Guitar Intro
Verse Alt 1 - 4 Times
Verse Alt 2 - 1 Time
Bridge - 1 Time
Verse Alt 1 - 2 Times
Verse Alt 2 - 1 Time
Bridge - 1 Time
Chorus Alt 1 - 5 TImes
Verse Alt 1 - 2 Times
Verse Alt 2 - 1 Time
Bridge - 1 Time
Chorus Alt 2 - 6 Times
Chorus Alt 3 - 2 Times
Breakdown - Forever 'Till The End
~*~End~*~
            

comments powered by Disqus
↑ Back to top | O.A.R. Bass for That Was A Crazy Game Of Poker. Lyrics for acoustic guitar and electric guitar. Tablatures and chords are parodies/interpretations of the original songs. You may use it for private study, scholarship, research or language learning purposes only