» » »

Something Coming Over Tabs (ver.1)

Artists:  A B C D E F G H I J K L M N O P Q R S T U V W X Y Z # 

Something Coming Over Tabs (ver.1)

O.A.R.
Rating:
0/5 (0 votes)

Hard to play? Try these video lessons and learn fast.
                Band: O.A.R.

O.A.R. used to play this song in a different key. Make everything one note lower to get that key.

Intro/Verse:

|5-5---9—9----7-7---10-9----|
|5-5---9h10---7-7---10-9----|
|6-6---9—9----7-7---11-10---|
|7-7---9h11---7-7---10-9----|
|7-7---9—9----9-9---12-11---|
|5-5----------7-7---10-9----|

Electric Guitar Riff 

|9h10p9--------------------------|
|-------12-10------10----10-10---|
|-------------11-9----11-------9-|
|--------------------------------|
|--------------------------------|
|--------------------------------|

|9h10p9------------------------9-|
|-------12-10------10----10------|
|-------------11-9----11----11---|
|--------------------------------|
|--------------------------------|
|--------------------------------|


|9h10p9--------------------------|
|-------12-10------10----10-10---|
|-------------11-9----11-------9-|
|--------------------------------|
|--------------------------------|
|--------------------------------|

|9h10p9------------/12-10-9h10-9-|
|-------12-10--------------------|
|-------------11-9---------------|
|--------------------------------|
|--------------------------------|
|--------------------------------|



Pre-Chorus

|-5----------------9---9---------7------5---|
|-5----------------9---10--------7------5---|
|-6----------------10--11--------7------6---|
|-7----------------11--11--------9------7---|
|-7----------------11--9---------9------7---|
|-5----------------9-------------7------5---|

     “It’s like I came to, from slee – ping”

|--------9------9------|
|--------9------10-----|
|--------10-----11-----|
|--------11-----11-----|
|--------11-----9------|
|--------9-------------|
No more dark - ness

|---7----------------------5-------------------------|
|---7----------------------6-------------------------|
|---7----------------------7-------------------------|
|---9----------------------7-------------------------|
|---9----------------------5-------------------------|
|---7------------------------------------------------|
I'm pulled to daylight...  Not that I had any choice




Chorus

|5-------------9—9--9---7-7---7-7---|
|5-------------9h10-10--7-7---7-7---|
|6----8-9-10---9—9--9---7-7---9-9---|
|7-x--7-8-9----9h11-11--9-9---9-9---|
|7-x--x-x-x----9—9--9---9-9---7-7---|
|5-5--7-8-9-------------7-7---------|

Bridge (Used to watch this game from the sidelines...)

|5-5-7-9--10-10-9--9--7-7-|
|5-5-7-9--10-10-9--9--7-7-|
|6-6-7-9--11-11-9--9--7-7-|
|7-7-9-11-12-12-11-11-9-9-| (2x)
|7-7-9-11-12-12-11-11-9-9-|
|5-5-7-9--10-10-9--9--7-7-|

|5-5-7-9--10-10-9--9--9--9--7-7---7~-6~-6-6-6-6-6-6-|
|5-5-7-9--10-10-9--9--10-10-7-7---7~-7~-7-7-7-7-7-7-|
|6-6-7-9--11-11-9--9--11-11-7-7---9~-8~-8-8-8-8-8-8-|
|7-7-9-11-12-12-11-11-11-11-9-9---9~-7~-7-7-7-7-7-7-| 
|7-7-9-11-12-12-11-11-9--9--9-9---7~-6~-6-6-6-6-6-6-|
|5-5-7-9--10-10-9--9--------7-7---------------------| 


The sax solo is just the chorus chords.



So, that’s it. I hope this helps whoever requested this tab :)
            
Hard to play? Try these video lessons and learn fast. | Correct




comments powered by Disqus
↑ Back to top | Tablatures and chords are parodies/interpretations of the original songs. You may use it for private study, scholarship, research or language learning purposes only