» » »

Someone In The Road Bass tabs (ver.1)

Artists:  A B C D E F G H I J K L M N O P Q R S T U V W X Y Z # 

Someone In The Road Bass tabs (ver.1)

O.A.R.
Rating:
0/5 (0 votes)

Tabs too difficult? Try these video lessons and learn fast.
                
For My Boy Mitch†

Intro
1|-----7--4-----4--------5-----5--------5-----2--4--4--2--|
2|--5--------5-----5--3--------------------0--------------|
3|--------------------------3-----3--3--------------------|
4|--------------------------------------------------------|
5|--------------------------------------------------------|

Verse Alt 1
1|---------------------------------------------------------|
2|------------------------------------2-----------3-----3--|
3|---------------------------------3-----3--3--5-----5-----|
4|--3--3--3--3--3-/-1--1--1--1--1--------------------------|
5|---------------------------------------------------------|

Chorus 1
1|--------------------------------------------------------|
2|--------------------------------------------------------|
3|--3--------3-----------2--5-----2--5--5--------5--------|
4|-----5--3-----0--2--3--------3-----------7--5-----7--5--|
5|--------------------------------------------------------|

Chorus 2
1|--------------------|
2|-----------5--------|
3|-----4--7-----7--4--|
4|--5-----------------|
5|--------------------|

Verse Alt  2
1|------------------------------------------|
2|---------------------------------3-----3--|
3|---------------------3--3--3--5-----5-----|
4|--3--3--3-/-1--1--1-----------------------|
5|------------------------------------------|

Outro
1|--------------------------------0-----2--2--0-----|
2|--------------------------0--2-----2-----------2--|
3|--3--2--3--2--------0--2--------------------------|
4|--------------3--3--------------------------------|
5|--------------------------------------------------|

~*~Song Structure~*~
Intro
Verse Alt 1 - 8 Times
Chorus 1 - 1 Time
Chorus 2 - 1 Time
Chorus 1 - 1 Time
Chorus 2 - 2 Times
Verse Alt 2 - 3 Times
Verse Alt 1 - 1 Time
Verse Alt 2 - 1 Time
Verse Alt 1 - 1 Time
Verse Alt 2 - 1 Time
Verse Alt 1 - 1 Time
Verse Alt 2 - 1 Time
Verse Alt 1 - 1 Time
Chorus 1 - 1 Time
Chorus 2 - 1 Time
Chorus 1 - 1 Time
Chorus 2 - 1 Time
Chorus 1 - 1 Time
Chorus 2 - 1 Time
Chorus 1 - 1 Time
Chorus 2 - 1 Time
Outro - 4 Times
~*~End~*~
            
Tabs too difficult? Try these video lessons and learn fast.


comments powered by Disqus
↑ Back to top | Tablatures and chords are parodies/interpretations of the original songs. You may use it for private study, scholarship, research or language learning purposes only