» » »

She Gone Tabs (ver.1)

Artists:  A B C D E F G H I J K L M N O P Q R S T U V W X Y Z # 

She Gone Tabs (ver.1)

O.A.R.
Rating:
0/5 (0 votes)

Hard to play? Try these video lessons and learn fast.
                O.A.R. - She Gone

This is the intro (played on electric). They use the same chord pattern for the chorus. Just listen to the song and you will figure it out, it's really easy.


E--------------------------------------------------------------------------
B--10-----x----10---x------------------------------------------------------
G---9-----x-----9---x----9----x---9---x-----8----x---8---x---9---x---9-----
D---7-----x-----7---x----9----x---9---x-----9----x---9---x---9---x---9-----
A------------------------7----x---7---x-----9----x---9---x---7---x---7-----
E-------------------------------------------7----x---7---x-----------------

This is the 2nd guitar, played on an acoustic

E-----5--5h7--5--5s7-------------------------------------------------------
B-----5--5h7--5--5s7-------------------------------------------------------
G--------------------------------------------------------------------------
D--------------------------------------------------------------------------
A--------------------------------------------------------------------------
E--------------------------------------------------------------------------

O.A.R. KICKS ASS!
            
Hard to play? Try these video lessons and learn fast. | Correct




comments powered by Disqus
↑ Back to top | Tablatures and chords are parodies/interpretations of the original songs. You may use it for private study, scholarship, research or language learning purposes only