» » »

Patiently Tabs (ver.2)

Artists:  A B C D E F G H I J K L M N O P Q R S T U V W X Y Z # 

Patiently Tabs (ver.2)

O.A.R.
Rating:
0/5 (0 votes)

Hard to play? Try these video lessons and learn fast.
                (Intro)
This is the whole of the intro to patiently.

           C          Em           F            G
e------------------------------------------------------|
b-----------5-5h6p5/3----------------------------3-----|
g-0-0h2p0-5-----------5-4--------------------2-5---4---|
d-------------------------5\2-0-0h2p0-3--3-5---------5-|
a------------------------------------------------------|
e------------------------------------------------------|

        C          Em              F            G
e-------------------------------------------6-8---10-8-|
b----------5-5h6p5/3-------8—5-3h5p3-6—-6-8-----8------|
g-0-020-5------------5-4/7-----------------------------|
d------------------------------------------------------|
a------------------------------------------------------|
e------------------------------------------------------|

Enjoy!
            
Hard to play? Try these video lessons and learn fast. | Correct




comments powered by Disqus
↑ Back to top | Tablatures and chords are parodies/interpretations of the original songs. You may use it for private study, scholarship, research or language learning purposes only