>
 >
Lay Down

Lay Down Bass Tabs

O.A.R. - Lay Down chords, tabs, tablatures, lyrics

Guitar lessons | Add/correct | Request | Top 50 tabs Artists:  A B C D E F G H I J K L M N O P Q R S T U V W X Y Z 0-9

Lay Down Bass Tabs – O.A.R.

CD, Sheet music, Poster

Do you like Lay Down? Share with your friends now
Bass TabsTabsTabs v2
INTRO
G|-------------|
D|-------------|
A|--2---4----5-|  x2
E|-------------|

G|-----------------|
D|-----------------|
A|--2---4---5----7-|
E|-----------------|

CHORUS (0:08)
G|--------------------------------|
D|-7-7-79--66---------6--1111-7-9-|
A|----9------77--97979------------|
E|--------------------------------|

G|-----------------------------------|
D|-7-7-79--66---------6--/11-/11-/11-|
A|----9------77--97979---------------|
E|-----------------------------------|

VERSE 1
G|--------------------------------|
D|--------------------------------|
A|--------------------------------|  x3
E|--5555---0000---2222---4444-----|

G|--------------------------------|
D|----------------------------/14-|
A|--------------------------------|
E|--5555---0000---2222---4-2------|

CHORUS
G|--------------------------------|
D|-7-7-79--66---------6--1111-7-9-|
A|----9------77--97979------------|
E|--------------------------------|
                                        x2
G|--------------------------------|
D|-7-7-79--66---------6--11-7-14--|
A|----9------77--97979------------|
E|--------------------------------|

VERSE 2
G|--------------------------------|
D|--------------------------------|
A|--------------------------------|  x3
E|--5555---0000---2222---4444-----|

G|--------------------------------|
D|----------------------------/14-|
A|--------------------------------|
E|--5555---0000---2222---4-2------|

CHORUS
G|--------------------------------|
D|-7-7-79--66---------6--1111-7-9-|
A|----9------77--97979------------|
E|--------------------------------|
                                        x2
G|--------------------------------|
D|-7-7-79--66---------6--11-7-14--|
A|----9------77--97979------------|
E|--------------------------------|

PERCUSSION & VOCALS (1:40)

VERSE 3
G|--------------------------------|
D|--------------------------------|
A|--------------------------------|  x4
E|--5555---0000---2222---4444-----|

INTRO
G|-------------|
D|-------------|
A|--2---4----5-|  x2
E|-------------|

G|-----------------|
D|-----------------|
A|--2---4---5----7-|
E|-----------------|

CHORUS
G|--------------------------------|
D|-7-7-79--66---------6--1111-7-9-|
A|----9------77--97979------------|
E|--------------------------------|

G|--------------------------------|
D|-7-7-79--66---------6--11-7-14--|
A|----9------77--97979------------|
E|--------------------------------|

G|--------------------------------|
D|-7-7-79--66---------6--1111-7-9-|
A|----9------77--97979------------|
E|--------------------------------|

OUTRO
G|-----------------------------------------|
D|-77777---99999---1111111111---1212121212-|
A|-----------------------------------------|
E|-----------------------------------------|

G|--------------------------------------|
D|-1414141414141414---------------------|
A|--------------------------------------|
E|-------------------0000-3333-5555-7h9-|

On the third hammer-on, it variates to a slide up to the 14th fret
G|-9h12-9h12-/14-9h12-9h12-9h12--|
D|-------------------------------|
A|-------------------------------|
E|-------------------------------|
                                     x4
G|-4h6-4h6-4h6-4h6-4h6-4h6-------|
D|-------------------------------|
A|-------------------------------|
E|-------------------------------|

This part is a little tricky. The bassist throws in a little improv, but otherwise, this is correct.
G|-------------------------------|
D|-12121212121212121212121212----|
A|-------------------------------|
E|-------------------------------|
                                     x2
G|-------------------------------|
D|-77777777777777----------------|
A|-------------------------------|
E|-------------------------------|

G|---------------------------------|
D|-1212-1212-1212--1212-1212-12h14-|
A|---------------------------------|
E|---------------------------------|

G|--------------------------------|
D|-77-77-77--77-77-7h9------------|
A|--------------------------------|
E|--------------------------------|

G|---------------------------------|
D|-1212-1212-1212--1212-1212-12h14-|
A|---------------------------------|
E|---------------------------------|

G|--------------------------------|
D|-77-77-77--77-77-7h9------------|
A|--------------------------------|
E|--------------------------------|

G|---------------------------------|
D|-1212-1212-1212--1212-1212-12h14-|
A|---------------------------------|
E|---------------------------------|

G|-----
D|-77--
A|-----
E|-----
Thats it. Most of this is correct. There are some parts that are a little tricky, but 
rest is dead-on.

I was waiting for someone to post this tab, and it never came, so I decided, what the 





Comments


Popular O.A.R. tabs & chords
Shattered 2 Bass Tabs
That Was A Crazy Game Of Poker Bass Tabs
Heaven 1 Chords
Conquering Fools Intro Tabs
Living In The End Tabs
Revisited Tabs
Toy Store (Intro) Tabs
About An Hour Ago Ukulele
City On Down Ukulele
Whatever Happened Ukulele


Song lyrics



↑ Back to top | Tablatures and chords are parodies/interpretations of the original songs. You may use it for private study, scholarship, research or language learning purposes only
© 2014 AZChords.com Contact us | Privacy policy | DMCA | Add/correct tabs | Request tabs | Top 50 tabs