>
 >
I Feel Home 1

I Feel Home 1 Guitar Tabs

O.A.R. - I Feel Home 1 chords, tabs, tablatures, lyrics

Guitar lessons | Add/correct | Request | Top 50 tabs Artists:  A B C D E F G H I J K L M N O P Q R S T U V W X Y Z 0-9

I Feel Home 1 Guitar Tabs – O.A.R.

CD, Sheet music, Poster

Do you like I Feel Home 1? Share with your friends now
ChordsChords v2TabsTabs v2Ukulele
----------------------------------------------------------------------------
                             I Feel Home - OAR
----------------------------------------------------------------------------


Tuning:Standard


This is a really sweet song and this tab is a lttle different than the others but
matches up with the song well.

Intro:

Am - just hammer on the G and D strings then strum until the next chords

    Am                              Am X 4
-|---------------0----0------|---------------------------------|
-|---1-----1-----1----1------|---------------------------------|
-|---0h2---0h2---0h2--0h2----|---------------------------------|
-|---0h2---0h2---0h2--0h2----|---------------------------------|
-|---------------------------|---------------------------------|
-|---------------------------|---------------------------------|

F C G C- there are two guitars; one strums these w/ some palm mute and the other does an 
the whole song like this:

    F           C            G            C
-|-----1-------------0------------3------------0-----------------|
-|--1----1---1----1----1---1-- 0----0---0---1----1---------------|
-|----2----2--------0----0-------0----0-------0------------------|
-|-3------------2------------0------------2---------0h2p0--------|
-|-3------------3------------2------------3----------------------|
-|-1------------0------------3-----------------------------------|

Verse: 1st Guitar ane 2nd Guitar continue

F C G C

    F           C            G            C
-|-----1-------------0------------3------------0-----------------|
-|--1----1---1----1----1---1-- 0----0---0---1----1---------------|
-|----2----2--------0----0-------0----0-------0------------------|
-|-3------------2------------0------------2---------0h2p0--------|
-|-3------------3------------2------------3----------------------|
-|-1------------0------------3------------0----------------------|


 F                                 C                 G                   C
There are few things pure in this world anymore, and home is one of the few.
 F                              C                    G                  C
We'd have a drink outside, maybe run and hide if we saw a couple men in blue.
 F                        C                   G                        C
But to me it's so damn easy to see that your people are the people at home. Well
 F                                 C                    G                 C
I've been away but now I'm back today, and there aint no place I'd rather go...than home


Chorus:1st Guitar Chords...2nd Guitar does some licks

G C Am Am

C                  G                        Am               D-12~-----10~--|
I feel home, when I see the faces that remember my own.----->A----10/12-----|
C                     G                       Am                  e-------8-|
I feel home, when I'm chillin outside with the people I know.---->B-5-/-6---|
C             G                Am
I feel home,  and that's just what I feel.
C                   G              Am
Home to me is reality, and all I need is something real.

~Break~

Am - just hammer on the G and D strings until the next chords

    Am
-|---------------0----0---------------------------------------|
-|---1-----1-----1----1---------------------------------------|
-|---0h2---0h2---0h2--0h2-------------------------------------|
-|---0h2---0h2---0h2--0h2-------------------------------------|
-|------------------------------------------------------------|
-|------------------------------------------------------------|


2nd Verse: 1st Guitar Chords....2nd Guitar arpeggio....


 F                      C                 G                  C
Feelin alright, headin out tonight, maybe off to a dark driveway.
 F                                    C                           G                   C
I say now some feel bored, and some are lookin for more. Well we all just decide to stay.
 F                         C                   G                        C
We got nothin to do, and I look at you I see something that I know and love. And with the
 F                       C                        G                        C
crack of a smile we all stay a while we know from home there aint nothing above.
           F            C                            G                    C
Well in the end we can all call a friend well that's something I know as true.
          F                    C                          G                   C
And then a thousand years and a thousand tears I'll come back to my original crew
         F                 C                    G                        C
cause to me throughout eternity there's somewhere where you're welcome to go
           F                           C                   G                      C
I said it's something free that means a lot to me when I'm with my friends I feel home.


2nd Chorus: 1st Guitar Chords....2nd Guitar licks....


G C Am Am

C                  G                        Am                 e-5--8--7-5--|
I feel home, when I see the faces that remember my own.  ----->B------------|
C                     G                       Am                  e----8--8-|
I feel home, when I'm chillin outside with the people I know.---->B--/8--8--|
C             G                Am
I feel home,  and that's just what I feel.
C                   G              Am
Home to me is reality, and all I need is something real.


SOLO:1st Guitar does Chorus Chords...2nd Guitar does solo

-|------------------------------------------------|
-|------------------------------------------------|
-|---------------------------9-9h10p9-10b-9-------|
-|-------10--12b-10----10-12---------------12-10--|
-|-10h12------------12----------------------------|
-|------------------------------------------------|

-|---------------------------------------------------------------|
-|---------------------------------------------------------------|
-|---------------------------------------------------------------|
-|-------10--10--12b-10---------------------------10-12-10-12b---|
-|-10h12------------------12-10-12---------8-10-12---------------|
-|----------------------------------10-12------------------------|

-|--------------------------------------------|
-|---------------13--13----13/15-13----13-----|
-|-9-10-9-9-9/12b--12--12-----------14----14--|
-|--------------------------------------------|
-|--------------------------------------------|
-|--------------------------------------------|

-|-----------------|
-|-----------------|
-|-9-9h10p9--------|
-|----------12-10--|
-|-----------------|
-|-----------------|

-|---------------------------------------------------------------------|
-|-------------------------------------------13-13-12-12---------------|
-|--------------------------9-10-9-9-9/12----------------14-14-12-10-9-|
-|-------10---10h12p10-12b---------------------------------------------|
-|-10h12---------------------------------------------------------------|
-|---------------------------------------------------------------------|

-|-----------------------------------------------|
-|-----------------------------------------------|
-|-9/10\9----------------------------------------|
-|--------12-10--10-12--10--12b----------10-10b--|
-|-------------------------------10-10h12--------|
-|-----------------------------------------------|

Order of the song

Intro
Verse
Chorus
Intro
Verse
Chorus

| /  slide up
| \  slide down
| h  hammer-on
| p  pull-off
| ~  vibrato
| +  harmonic
| x  Mute note
============================================================================





Comments


Popular O.A.R. tabs & chords
Love And Memories Bass Tabs
When Can I Go Home? Chords
59th Street Bridge Song Feelin Groovy Tabs
Anyway Intro Tabs
Dareh Meyod 3 Tabs
To Zion Goes I 1 Tabs
Tonight Tabs
Delicate Few Ukulele
James Ukulele
Love And Memories Ukulele


Song lyrics



↑ Back to top | Tablatures and chords are parodies/interpretations of the original songs. You may use it for private study, scholarship, research or language learning purposes only
© 2014 AZChords.com Contact us | Privacy policy | DMCA | Add/correct tabs | Request tabs | Top 50 tabs