>
 >
I Feel Home

I Feel Home Guitar Tabs

O.A.R. - I Feel Home chords, tabs, tablatures, lyrics

Guitar lessons | Add/correct | Request | Top 50 tabs Artists:  A B C D E F G H I J K L M N O P Q R S T U V W X Y Z 0-9

I Feel Home Guitar Tabs – O.A.R.

CD, Sheet music, Poster

Do you like I Feel Home? Share with your friends now
ChordsChords v2TabsTabs v2Ukulele


=========================
== ARTIST: O.A.R       ==
== SONG: I Feel Home   ==
== TAB BY: M. Buchholz ==
=========================


  INTRO: (finger picking)
-|-------------0----0----|
-|-1-----1-----1----1----|
-|-0h2---0h2--------0h2--|
-|-0h2---------0h2--0h2--|
-|-------0---------------|
-|-----------------------|


-|-0---0-x---0-x--|
-|-1---1-x-1-1-x--|
-|---------2------|   Play Four
-|-0h2------------|     Times
-|---------0------|
-|----------------|


  VERSE: (Guitar 1 - Strumming)
-|-0--0-0-3--0-0-0-0-0--0-0-3--0-0-0-0--|
-|-1--1-1-1--1-1-1-1-1--1-1-1--1-1-1-1--|
-|-2--2-2-2--2-2-2-2-0--0-0-0--0-0-0-0--|
-|-3--3-3-3--3-3-3-3-2--2-2-2--2-2-2-2--|
-|-------------------3--3-3-3--3-3-3-3--|
-|--------------------------------------|

-|--------3--0-0-0-0-0--0-0-0--|
-|-0--0-0-0--0-0-0-0-1--1-1-1--|
-|-0--0-0-0--0-0-0-0-0--0-0-0--|
-|-0--0-0-0--0-0-0-0-2--2-2-2--|
-|-2--2-2-2--2-2-2-2-3--3-3-3--|
-|-3--3-3-3--3-3-3-3-----------|


  VERSE: (Guitar 2 - Fingerpicking)
-|-0---0-x-3-0---0---0-x-3-0---0---3-x-3--0----0---0-x-0-0--------|
-|-1---1-x-1---------1-x-1---------0-x-------------1-x-1-1--------|
-|--h2---------------------------------------------------------0--|
-|-0h3-----3---3---------2-------------0-----0---------3---0h2----|
-|-----------------3---------3-------------------3----------------|
-|-------------------------------3--------------------------------|


  CHORUS: (Guitar 1)
-|-0-0-0-0---0-0-0--3-3-3-3---3-3-3--0-0-0-0---0-0-0--0-0-0-0---0-0-0--|
-|-1-1-1-1---1-1-1--0-0-0-0---0-0-0--1-1-1-1---1-1-1--1-1-1-1---1-1-1--|
-|-0-0-0-0---0-0-0--0-0-0-0---0-0-0--2-2-2-2---2-2-2--2-2-2-2---2-2-2--|
-|-2-2-2-2---2-2-2--0-0-0-0---0-0-0--2-2-2-2---2-2-2--2-2-2-2---2-2-2--|
-|-3-3-3-3---3-3-3--2-2-2-2---2-2-2--0-0-0-0---0-0-0--0-0-0-0---0-0-0--|
-|-3-3-3-3---3-3-3--3-3-3-3---3-3-3------------------------------------|


  CHORUS: (Guitar 2)
-|-----0-x---0-0-0-----3-x----0---0-x-0---0-x-0-0-x---0-x--|
-|-1---1-x-1-1-1-1--3--3-x-3--1---1-x-1-1-1-x-1-1-x-1-1-x--|
-|-0---0-x-0-0-0-0--0--0-x-0--0h2-2-x-2-2-----------2------|  Play
-|--h2-2-x---2-2-2------------0h2-----2-------0------------|  Twice
-|-0h3-----3----------------------------0-----------0------|
-|--h3--------------0h3----3-------------------------------|


  (Guitar 2 on Third Time)
-|-----0-x---0-0-0-----3-x----0---0-x-0---0-x-3-0-x---0-x--|
-|-1---1-x-1-1-1-1--3--3-x-3--1---1-x-1-1-1-x-1-1-x-1-1-x--|
-|-0---0-x-0-0-0-0--0--0-x-0--0h2-2-x-2-2-----------2------|
-|--h2-2-x---2-2-2------------0h2-----2-------0------------|
-|-0h3-----3----------------------------0-----------0------|
-|--h3--------------0h3----3-------------------------------|


  INTERLUDE (during chorus)
-|--------------|-----------|
-|--------------|------13b--|
-|--------------|-9/10------|
-|-12b-10----10-|-----------|
-|--------12----|-----------|
-|--------------|-----------|


-|-0---0-x---0-x--|
-|-1---1-x-1-1-x--|
-|---------2------|   Play Four
-|-0h2------------|     Times
-|---------0------|
-|----------------|


  VERSE: (Guitar 1 - Strumming)
-|-0--0-0-3--0-0-0-0-0--0-0-3--0-0-0-0--|
-|-1--1-1-1--1-1-1-1-1--1-1-1--1-1-1-1--|
-|-2--2-2-2--2-2-2-2-0--0-0-0--0-0-0-0--|
-|-3--3-3-3--3-3-3-3-2--2-2-2--2-2-2-2--|
-|-------------------3--3-3-3--3-3-3-3--|
-|--------------------------------------|

-|--------3--0-0-0-0-0--0-0-0--|
-|-0--0-0-0--0-0-0-0-1--1-1-1--|
-|-0--0-0-0--0-0-0-0-0--0-0-0--|
-|-0--0-0-0--0-0-0-0-2--2-2-2--|
-|-2--2-2-2--2-2-2-2-3--3-3-3--|
-|-3--3-3-3--3-3-3-3-----------|


  VERSE: (Guitar 2 - Fingerpicking)
-|-0---0-x-3-0---0---0-x-3-0---0---3-x-3--0----0---0-x-0-0--------|
-|-1---1-x-1---------1-x-1---------0-x-------------1-x-1-1--------|
-|--h2---------------------------------------------------------0--|
-|-0h3-----3---3---------2-------------0-----0---------3---0h2----|
-|-----------------3---------3-------------------3----------------|
-|-------------------------------3--------------------------------|


  CHORUS: (Guitar 1)
-|-0-0-0-0---0-0-0--3-3-3-3---3-3-3--0-0-0-0---0-0-0--0-0-0-0---0-0-0--|
-|-1-1-1-1---1-1-1--0-0-0-0---0-0-0--1-1-1-1---1-1-1--1-1-1-1---1-1-1--|
-|-0-0-0-0---0-0-0--0-0-0-0---0-0-0--2-2-2-2---2-2-2--2-2-2-2---2-2-2--|
-|-2-2-2-2---2-2-2--0-0-0-0---0-0-0--2-2-2-2---2-2-2--2-2-2-2---2-2-2--|
-|-3-3-3-3---3-3-3--2-2-2-2---2-2-2--0-0-0-0---0-0-0--0-0-0-0---0-0-0--|
-|-3-3-3-3---3-3-3--3-3-3-3---3-3-3------------------------------------|


  CHORUS: (Guitar 2)
-|-----0-x---0-0-0-----3-x----0---0-x-0---0-x-0-0-x---0-x--|
-|-1---1-x-1-1-1-1--3--3-x-3--1---1-x-1-1-1-x-1-1-x-1-1-x--|
-|-0---0-x-0-0-0-0--0--0-x-0--0h2-2-x-2-2-----------2------|  Play
-|--h2-2-x---2-2-2------------0h2-----2-------0------------|  Twice
-|-0h3-----3----------------------------0-----------0------|
-|--h3--------------0h3----3-------------------------------|


  (Guitar 2 on Third Time)
-|-----0-x---0-0-0-----3-x----0---0-x-0---0-x-3-0-x---0-x--|
-|-1---1-x-1-1-1-1--3--3-x-3--1---1-x-1-1-1-x-1-1-x-1-1-x--|
-|-0---0-x-0-0-0-0--0--0-x-0--0h2-2-x-2-2-----------2------|
-|--h2-2-x---2-2-2------------0h2-----2-------0------------|
-|-0h3-----3----------------------------0-----------0------|
-|--h3--------------0h3----3-------------------------------|


  INTERLUDE (during chorus):
-|-8-8-x------|---8---8---|
-|---0-x-12---|-----------|
-|------------|-9---9-----|
-|------------|-----------|
-|------------|-----------|
-|------------|-----------|


  SOLO:
-|------------------------------------------------|
-|------------------------------------------------|
-|---------------------------9-10-9-10b-9---------|
-|-------10--12b-10----10-12---------------12-10--|
-|-10h12------------12----------------------------|
-|------------------------------------------------|

-|---------------------------------------------------------------|
-|---------------------------------------------------------------|
-|---------------------------------------------------------------|
-|-------10--10-10-12b-10--------------------------10-12-10-12---|
-|-10h12------------------12-10-12-----------10-12---------------|
-|----------------------------------10-12-13---------------------|

-|--------------------------------------------|
-|---------------13--13----13/15-13----13-----|
-|-9-10-9-9-9/12---12---12----------14----12--|
-|--------------------------------------------|
-|--------------------------------------------|
-|--------------------------------------------|

-|-----------------|
-|-----------------|
-|-9/10\9----------|
-|--------12-10----|
-|-----------------|
-|-----------------|

-|-----------------------------------------------------------|
-|---------------------------------------15-13-12------------|
-|------------------------9-10-9-9-9h12-----------12-10-9----|
-|-------10---12/13\12-13------------------------------------|
-|-10h12-----------------------------------------------------|
-|-----------------------------------------------------------|

-|---------------------------------------------|
-|---------------------------------------------|
-|-9/10\9----------------9b--------------------|
-|--------12-10--10-12-10----12--------10-10b--|
-|-------------------------------10h12---------|
-|---------------------------------------------|





Comments


Popular O.A.R. tabs & chords
Hey Girl Bass Tabs
Living In The End Tabs
Love And Memories 1 Tabs
Start It Over Intro Tabs
About Mr Brown Ukulele
Almost Easy Ukulele
Ladanday Ukulele
Love Is Worth The Fall Ukulele
On My Way Ukulele
Toy Store Ukulele


Song lyrics



↑ Back to top | Tablatures and chords are parodies/interpretations of the original songs. You may use it for private study, scholarship, research or language learning purposes only
© 2014 AZChords.com Contact us | Privacy policy | DMCA | Add/correct tabs | Request tabs | Top 50 tabs