» » »

Get Away Bass tabs (ver.1)

Artists:  A B C D E F G H I J K L M N O P Q R S T U V W X Y Z # 

Get Away Bass tabs (ver.1)

O.A.R.
Rating:
0/5 (0 votes)

Hard to play? Try these video lessons and learn fast.
                

Beginning to about 0:46 (Verse Riff)
G---------|----------|---------|----------|
D-5-------|----------|---------|------2-3-|
A-----7b8-|-5----5/7-|-0-------|-33-------|  x8
E---------|----------|---------|----------|


Chorus riff (about 0:46)
G---------|----------|----------|----------|
D-2----/5-|----------|-2-----/5-|----------|
A---------|-3------5-|----------|-3------5-|
E---------|----------|----------|----------|

G---------|----------|----------|----------|
D-2----/5-|----------|----------|----------|
A---------|-3------5-|-5--------|-5--7--8--|
E---------|----------|----------|----------|


Verse Riff (about 0:56 - 1:14)
G---------|----------|---------|----------|
D-5-------|----------|---------|------2-3-|
A-----7b8-|-5----5/7-|-0-------|-33-------|  x4
E---------|----------|---------|----------|

Verse Riff 2 (about 1:09 - 1:21)
G---------|----------|---------|----------|
D-55------|----------|---------|------2-3-|
A-----7b8-|-55---5/7-|-00------|-33-------|  x2
E---------|----------|---------|----------|

Verse Riff (about 1:21 - 1:44)
G---------|----------|---------|----------|
D-5-------|----------|---------|------2-3-|
A-----7b8-|-5----5/7-|-0-------|-33-------|  x4
E---------|----------|---------|----------|


Chorus riff (about 1:44 - 1:56)
G---------|----------|----------|----------|
D-2----/5-|----------|-2-----/5-|----------|
A---------|-3------5-|----------|-3------5-|
E---------|----------|----------|----------|

G---------|----------|----------|----------|
D-2----/5-|----------|----------|----------|
A---------|-3------5-|-5--------|-5--7--8--|
E---------|----------|----------|----------|


Verse Riff (about 1:56 - 2:18)
G---------|----------|---------|----------|
D-5-------|----------|---------|------2-3-|
A-----7b8-|-5----5/7-|-0-------|-33-------|  
E---------|----------|---------|----------|

Verse Riff 2 (about 2:18 - 2:48)
G---------|----------|---------|----------|
D-55------|----------|---------|------2-3-|
A-----7b8-|-55---5/7-|-00------|-33-------|  
E---------|----------|---------|----------|

Verse Riff (about 2:48)
G---------|----------|---------|----------|
D-5-------|----------|---------|------2-3-|
A-----7b8-|-5----5/7-|-0-------|-33-------|  
E---------|----------|---------|----------|
 
After that you can figure out the order and stuff, its real easy.  
At the end of the song it sounds good and is fun to improvise, 
just use the same notes in different order and/or rhythm or use the key of C. 
            
Hard to play? Try these video lessons and learn fast. | Correct




comments powered by Disqus
↑ Back to top | Tablatures and chords are parodies/interpretations of the original songs. You may use it for private study, scholarship, research or language learning purposes only