» » »

O.A.R., General Tabs (ver.1)

Artists:  A B C D E F G H I J K L M N O P Q R S T U V W X Y Z # 

General Tabs (ver.1)

O.A.R. Tabs
 Rating:
4/5 (4 votes)
General lessons Tabs too difficult? Try these video lessons and learn fast
1
                

This is in the key of A sharp major

------------------------------------------------------------------------------|
-------------3-3----------------5-5-------------------------------------------|
-------------3-3-1--------------5-5-3-----------------------------------------|
-------------3-3----------------5-5--------------------88-33------------------|
-------1-1---3-3----3-3/5-3------------3-5-5/8-6-------66-11-33xx33-----------|
-1-1-3-----3----------------5-3------------------8-6-8-------11xx11-----------|
 Intro:  Play 2x          This isnt exact

------------------------------------------------------------------------------|
------------------------------------------------------------------------------|
------------------------------------------------------------------------------|
-33----------55----------88----33---------------------------------------------|
-11-xx-33-xx-33-xx-55-xx-66-xx-11-xx-33xx33-----------------------------------|
----xx-11-xx----xx-33-xx----xx----xx-11xx11-----------------------------------|
 Verse:

------------------------------------------------------------------------------|
------------------------------------------------------------------------------|
------------------------------------------------------------------------------|
-3-----------5-----------8-----3----------------------------------------------|
-1-----3-----3-----5-----6-----1----3--3--------------------------------------|
-------1-----------3----------------1--1--------------------------------------|
 Chorus:  Strum these chords

------------------------------------------------------------------------------|
------------------------------------------------------------------------------|
------------------------------------------------------------------------------|
------------------------------------------------------------------------------|
-5---------3------------------------------------------------------------------|
-3---------1------------------------------------------------------------------|
 Break after chorus: Strum chords
            
Submit corrections

comments powered by Disqus
↑ Back to top | O.A.R. Tabs for General. Lyrics for acoustic guitar and electric guitar. 1 Tablatures and chords are parodies/interpretations of the original songs. You may use it for private study, scholarship, research or language learning purposes only