» » »

Delicate Few Tabs (ver.1)

Artists:  A B C D E F G H I J K L M N O P Q R S T U V W X Y Z # 

Delicate Few Tabs (ver.1)

O.A.R.
Rating:
0/5 (0 votes)

Hard to play? Try these video lessons and learn fast.
                (Intro)
This is my first post so i hope you can get something out of it! 

----------------------------------------------------------------------------
Delicate Few- O.A.R.
----------------------------------------------------------------------------

   C                     F     G               F    Em     C
e|-0--0--0--0--|--0--0--0--0--|-3--3--3--3--|-0--0--0--0-|-0-|
B|-1--1--1--1--|--0--0--1--1--|-0--0--0--0--|-1--1--0--0-|-1-|
G|-0--0--0--0--|--0--0--2--2--|-0--0--0--0--|-2--2--0--0-|-0-|
D|-2--2--2--2--|--2--2--3--3--|-0--0--0--0--|-3--3--2--2-|-2-|
A|-3--3--3--3--|--3--3--------|-2--2--2--2--|-------2--2-|-3-|
E|-------------|--------------|-3--3--3--3--|-------0--0-|---|


           F         G         F     Em   C
e|-0--0--0--0-|-3--3--3--3-|-0--0--0--0-|-0-|
B|-0--0--1--1-|-0--0--0--0-|-1--1--0--0-|-1-|
G|-0--0--2--2-|-0--0--0--0-|-2--2--0--0-|-0-|
D|-2--2--3--3-|-0--0--0--0-|-3--3--2--2-|-2-|
A|-3--3-------|-2--2--2--2-|-------2--2-|-3-|
E|------------|-3--3--3--3-|------------|---|

 
---Regee chords---(comes right after intro)
same tune and chords


e|-8--8--8--8-|-7--7--8---8---|-7--7--7--7-|-8---8---7--7--|
B|-8--8--8--8-|-8--8--10--10--|-8--8--8--8-|-10--10--8--8--|
G|-9--9--9--9-|-9--9--10--10--|-7--7--7--7-|-10--10--9--9--|
D|------------|---------------|------------|---------------|
A|------------|---------------|------------|---------------|
E|------------|---------------|------------|---------------|

e|-3--3--3--3-|-3--3--5--5-|-3--3--3--3-|-1--1--3--3-|
B|-5--5--5--5-|-5--5--6--6-|-3--3--3--3-|-1--1--5--5-|
G|-5--5--5--5-|-4--4--5--5-|-4--4--4--4-|-2--2--4--4-|
D|------------|------------|------------|------------|
A|------------|------------|------------|------------|
E|------------|------------|------------|------------|
            
Hard to play? Try these video lessons and learn fast. | Correct




comments powered by Disqus
↑ Back to top | Tablatures and chords are parodies/interpretations of the original songs. You may use it for private study, scholarship, research or language learning purposes only