>
 >
Coalminer

Coalminer Guitar Tabs

O.A.R. - Coalminer chords, tabs, tablatures, lyrics

Guitar lessons | Add/correct | Request | Top 50 tabs Artists:  A B C D E F G H I J K L M N O P Q R S T U V W X Y Z 0-9

Coalminer Guitar Tabs – O.A.R.

CD, Sheet music, Poster

Do you like Coalminer? Share with your friends now
ChordsTabs
Lead:



Riff 1:
e|-----------------------------------------------------------------------|
B|-----------------------------------------------------------------------|
G|-------12-12-12^14^12--------12-12-14-12-x--14^16^14-------------------|
D|-12^14----------------14--14-------------------------17-17/19-17---/12-|
A|-----------------------------------------------------------------------|
E|-----------------------------------------------------------------------|

Riff 2:

e|--------------------------------------------------------------------|
B|--------------------------------------------------------------------|
G|-------12-12-12^14^12--------12-12-14-12-14-14/16-14-16/17-14-17/19-|
D|-12^14----------------14--14----------------------------------------|
A|--------------------------------------------------------------------|
E|--------------------------------------------------------------------|

e|--------------------------------------------------------------------|
B|--------------------------------------------------------------------|
G|-17-19/21-----------------------------------------------------------|
D|--------------------------------------------------------------------|
A|--------------------------------------------------------------------|
E|--------------------------------------------------------------------|


Riff 3:
e|--------------------------------------------------------------------|
B|--------------------------------------------------------------------|
G|-------12^14^12----------12-12-12^14^12--------12-12-14-12-x--------|
D|-12^14----------14-12-14----------------14--14----------------------|
A|--------------------------------------------------------------------|
E|--------------------------------------------------------------------|

e|--------------------------------------------------------------------|
B|--------------------------------------------------------------------|
G|-14^16^14-----------------------------------------------------------|
D|----------17-17/19-17----/12----------------------------------------|
A|--------------------------------------------------------------------|
E|--------------------------------------------------------------------|

Riff 4:
e|--------------------------------------------------------------------|
B|--------------------------------------------------------------------|
G|-------12-14-12-x--14^16^14-----------------------------------------|
D|-12-14----------------------17-17/19-17----/12----------------------|
A|--------------------------------------------------------------------|
E|--------------------------------------------------------------------|

Riff 5: (be careful with the phrasing; may need some work)
e|--------------------------------------------------------------------|
B|--------------------------------------------------------------------|
G|-14b^16^14----------------------------------------------------------|
D|----------16-14-----------------------------------------------------|
A|----------------17-14-15-12-10-12-14-12-12/14-12/10~~---------------|
E|--------------------------------------------------------------------|

Riff 6:
e|--------------------------------------------------------------------|
B|-12^13^12-----12^13^12-----------12^13-15-13-15/17-17/19-17-/15~~~~~|
G|----------14-----------14--12^14------------------------------------|
D|--------------------------------------------------------------------|
A|--------------------------------------------------------------------|
E|--------------------------------------------------------------------|

Solo
e|-17/19-19b-17-19b-17--------------------------------------------------|
B|---------------------20-17---17-19-17/15-15-17-15/13-13-15-13/12-12-13|
G|----------------------------------------------------------------------|
D|----------------------------------------------------------------------|
A|----------------------------------------------------------------------|
E|----------------------------------------------------------------------|

e|---------------------------------------------------------------------|
B|-12/10-10^12--------15-12-13-12--------15-12-13-12--------15-12-13-12|
G|-------------12-----------------14-12--------------14-12-------------|
D|---------------------------------------------------------------------|
A|---------------------------------------------------------------------|
E|---------------------------------------------------------------------|

e|-------------------------------------------------------------------|
B|-15-13^12-15-13^12-------------------------------------------------|
G|-------------------14-12-14b15-12----12----------------------------|
D|----------------------------------14----14-12-12---------------12--|
A|---------------------------------------------------10/--12^14^---14|
E|-------------------------------------------------------------------|

e|----------------------------------------------------------17-15-|
B|-------------------------------------12/13-15-13-17-15-15-------|
G|--------12----12-14b15-12----12---14----------------------------|
D|-12^14^----14-------------14------------------------------------|
A|----------------------------------------------------------------|
E|----------------------------------------------------------------|

e|----19-15----20-15----19-15----20-15----19-15---17-15---------------|
B|-15-------15-------15-------15-------15------15-------15-17---------|
G|--------------------------------------------------------------------|
D|--------------------------------------------------------------------|
A|--------------------------------------------------------------------|
E|--------------------------------------------------------------------|

e|----------------------12^15^12--------------------------------------|
B|-15/17-15/17-15/17-15----------15^12--------------------------------|
G|-------------------------------------14^12--------------------------|
D|-------------------------------------------14^12-/10----------------|
A|--------------------------------------------------------------------|
E|--------------------------------------------------------------------|



Guitar:

Intro:

E---5---7---0---0---
B---6---8---5---5---
G---5---7---6---6---
D---x---x---7---7---
A---x---x---7---7---
E---x---x---x---x---


Verse:

E---3---3---5---5---
B---3---5---7---7---
G---4---5---7---7---
D---5---5---7---7---
A---5---3---5---5---
E---3---3---5---5---


Chorus:

E---1---0---3---3---
B---1---1---3---3---
G---2---0---0---0---
D---3---2---0---0---
A---3---3---2---2---
E---1---0---3---3---


Post-Chorus: 

E---2---
B---3---
G---2---
D---0---
A---x---
E---x---


Question/Comments:
OARSA.ORG





Comments


Popular O.A.R. tabs & chords
Love And Memories Bass Tabs
Hey Girl Chords
My Life 1 Chords
One Day Chords
Over And Over Chords
Risen Chords
Dakota Tabs
James Tabs
Toy Store Tabs
What Is Mine Intro Tabs


Song lyrics



↑ Back to top | Tablatures and chords are parodies/interpretations of the original songs. You may use it for private study, scholarship, research or language learning purposes only
© 2014 AZChords.com Contact us | Privacy policy | DMCA | Add/correct tabs | Request tabs | Top 50 tabs