» » »

O.A.R., Black Rock Tabs (ver.4)

Artists:  A B C D E F G H I J K L M N O P Q R S T U V W X Y Z # 

Black Rock Tabs (ver.4)

O.A.R. Tabs
Rating:
0/5 (0 votes)
Black Rock lessons Tabs too difficult? Try these video lessons and learn fast
                band: O.A.R.


This is my own work, done all by ear. Thanks for checking it out and please rate.    - Matt


Tuning: Standard
   Intro: repeat however many times you need to.
e|----------------12--------------------------7------------------------------|
B|--------------------15-------------------------10--------------------------|
G|--------14--------------14------------9------------9-----------------------|
D|-----12----12---------------12-----7----7-------------7--------------------|
A|---------------------------------------------------------------------------|
E|---------------------------------------------------------------------------|

e|--------------------10-99-(0)--------------5-33-(0)------------------------|
B|---------------------------------------------------------------------------|
G|-----------------------------------7---------------------------------------|
D|---7\9----12-9-12---------------5-----5------------------------------------|
A|---------------------------------------------------------------------------|
E|---------------------------------------------------------------------------|
     End on this
e|--|--------------12--------------------------7------------2x-2x-2x-2x------|
B|--|-----------------15-------------------------10---------3x-3x-3x-3x------|
G|--|------14--------------14------------9------------9-----4x-4x-4x-4x------|
D|--|---12----12---------------12-----7----7-------------7--4x-4x-4x-4x------|
A|--|-------------------------------------------------------2x-2x-2x-2x------|
E|--|-------------------------------------------------------2x-2x-2x-2x------|
     Verse: (>) = just figure out the strumming pattern, its the same throughout the 
 play this untill the chorus
e|--2>>>>----2>>>>---3>>>>---------------------------------------------------|
B|--3>>>>----3>>>>---3>>>>---------------------------------------------------|
G|--2>>>>----4>>>>---4>>>>---------------------------------------------------|
D|--0>>>>----4>>>>---5>>>>---------------------------------------------------|
A|-----------2>>>>---5>>>>---------------------------------------------------|
E|-----------2>>>>---3>>>>---------------------------------------------------|
    Chorus
e|----------------12--------------------------7------------------------------|
B|--------------------15-------------------------10--------------------------|
G|--------14--------------14------------9------------9-----------------------|
D|-----12----12---------------12-----7----7-------------7--------------------|
A|---------------------------------------------------------------------------|
E|---------------------------------------------------------------------------|

e|--------------------10-99-(0)--------------5-33-(0)------------------------|
B|---------------------------------------------------------------------------|
G|-----------------------------------7---------------------------------------|
D|---7\9----12-9-12---------------5-----5------------------------------------|
A|---------------------------------------------------------------------------|
E|---------------------------------------------------------------------------|
     End on this
e|--|--------------12--------------------------7------------2x-2x-2x-2x------|
B|--|-----------------15-------------------------10---------3x-3x-3x-3x------|
G|--|------14--------------14------------9------------9-----4x-4x-4x-4x------|
D|--|---12----12---------------12-----7----7-------------7--4x-4x-4x-4x------|
A|--|-------------------------------------------------------2x-2x-2x-2x------|
E|--|-------------------------------------------------------2x-2x-2x-2x------|

     SOLO
e|------------------------------------------------------------12-10----------|
B|---------------------------------------------------12-10-10----------------|
G|-----------4---7777\9-7---------7-9-11-11-11\12\14-------------------------|
D|-----4-5-7--------------9-7-7\9--------------------------------------------|
A|-5-7-----------------------------------------------------------------------|
E|---------------------------------------------------------------------------|

e|---12-12\14\15-14-15-15\17---17171717-1515-1414-----1717-1515-14-----------|
B|-----------------------------------------------1515-------------1515-------|
G|---------------------------------------------------------------------------|
D|---------------------------------------------------------------------------|
A|---------------------------------------------------------------------------|
E|---------------------------------------------------------------------------|

e|--1717-1515-14-------------------------10----------------------------------|
B|---------------1515--12b12b12b--10--------12-10----------------------------|
G|------------------------------------------------11-9-----9-------------9---|
D|-----------------------------------------------------12---12--9-12-9-12----|
A|---------------------------------------------------------------------------|
E|---------------------------------------------------------------------------|

e----------------------------------------------------------------------------|
B----------------------------------------------------------------------------|
G---------9--9-121212--11--9-------------------------------------------------|
D---7\9-12-12------------------12--------------------------------------------|
A----------------------------------------------------------------------------|
E----------------------------------------------------------------------------|

Bass for a little while with some d chord strumming in the back.
Play Chorus again.
Play Verse.
Not much Guitar for a while just some harmonics: these chords 12  7 12
                                                              12  7 12
                                                              12  7 12
 these are harmonics and not strummed hard  ----------        12  7 12
                                                              12  7 12
                                                              12  7 12

harmonics continued
-----------12-------------|              to play these harmonics, bar
---------------12---------|              between the 12th and 13th, and the
------12------------------|              7th and 8th.
---12---------------------|
--------------------------|
--------------------------|

Play the verse And thats it                 Thanks again!
                                             Please Rate
            
Submit corrections

comments powered by Disqus
↑ Back to top | O.A.R. Tabs for Black Rock. Lyrics for acoustic guitar and electric guitar. Tablatures and chords are parodies/interpretations of the original songs. You may use it for private study, scholarship, research or language learning purposes only