» » »

O.A.R., Anyway Bass tabs (ver.1)

Artists:  A B C D E F G H I J K L M N O P Q R S T U V W X Y Z # 

Anyway Bass tabs (ver.1)

O.A.R. Tabs
 Rating:
4/5 (4 votes)
Anyway lessons Tabs too difficult? Try these video lessons and learn fast
1
                Band: O.A.R.

I don’t think O.A.R.usually goes in alternative tunings but in order for this song to 
it has to hit the note D which is too low to reach on a standard tuned bass. So it must be 
Tuning.

Intro

G|------------------------|
D|------------------------|
A|------------------------|
D|2-6-7-7-9-9-9-9---2-6-7-|

Verse

G|----------------------------|
D|----------------------------|
A|----------------------------|
D|14/6-7-7-9-9-9-9---14/6-6-7-|

Chorus

G|------------------------|
D|------------------------|
A|------------------------|
D|2-6-7-7-9-9-9-9---2-6-7-|


Bridge

G|-------------------------|
D|-------------------------|
A|-------------------------|
D|0h2-2-2-2~---0h2-2-2-2~--|

When Marc starts singing it becomes:

G|--------------------------|
D|--------------------------|
A|--------------------------|
D|14/-2-2-2------14/-2-2-2--|


And then when he sings: “A wise man one said…” it becomes this:

G|-----------------------|
D|--------2/----------2/-|
A|2h5-5-5----2h5-5-5-----|
D|-----------------------|

Outro

G|----------------|
D|----------------|
A|----------------| (repeat as necessary)
D|2-6-7~---2-6-7~-|

G|----------------|
D|----------------|
A|----------------|
D|2-6-7-6-4-6-2~--|
            
Submit corrections

comments powered by Disqus
↑ Back to top | O.A.R. Bass for Anyway. Lyrics for acoustic guitar and electric guitar. 1 Tablatures and chords are parodies/interpretations of the original songs. You may use it for private study, scholarship, research or language learning purposes only