» » »

O.A.R., About Mr Brown Bass tabs (ver.1)

Artists:  A B C D E F G H I J K L M N O P Q R S T U V W X Y Z # 

About Mr Brown Bass tabs (ver.1)

O.A.R. Tabs
 Rating:
4/5 (4 votes)
About Mr Brown lessons Tabs too difficult? Try these video lessons and learn fast
                Band: O.A.R.

When the tab bars have “ : ” at the end, that means repeat until the next part comes. 
order of the song is listed at the bottom. There is a lot of improve done so the verses 
chorus might be slightly different each time. Enjoy.

Intro:

|--------------------------------|
|--------------------------------|
|3---2-3---0h2-3-0---2-3-------2-|
|--------0---------3-----1-1h3---|

|--------------------------------|
|--------------------------------|
|3-2-3-----2-2---0-3-0---------2-|
|------0-3-----3-------3-1-3-3---|

Verses

|------------------------:
|------------------------:
|3-2-3-----2-0---0-------:
|------0-3-----3---1-3-3-:

Pre-Chorus (A-lalala-A-Oh)

|------------------------------:
|------------------------------:
|3-2-3-------2-0-0---0---------:
|------0-0-3-------3---1-1-3-3-:

Chorus

|------------0-----------2-------:
|3-3-2-3-2-3-----5---5-------2---:
|--------------3---2---0---3---3-:
|--------------------------------:

Solo

|------------------------------------:
|------------------------------------:
|3-3-2-3-------2-0-0-----------------:
|--------0-0-3-------1-1-1-1-3-3-3-3-:


Outro:

|----------------------------|
|----------------------------|
|3-3-2-3-----2-3---0—0-----3-|
|--------0-3-----3-----1-3---|


Order of Song:

Intro
Verse
Pre-Chorus
Verse
Pre-Chorus
Chorus
Verse
Pre-Chorus
Verse
Pre-Chorus
Chorus
Solo
Chorus
Outro
            
Submit corrections

comments powered by Disqus
↑ Back to top | O.A.R. Bass for About Mr Brown. Lyrics for acoustic guitar and electric guitar. Tablatures and chords are parodies/interpretations of the original songs. You may use it for private study, scholarship, research or language learning purposes only