» » »

O.A.G, Nowwhy2 Tabs (ver.1)

Artists:  A B C D E F G H I J K L M N O P Q R S T U V W X Y Z # 

Nowwhy2 Tabs (ver.1)

O.A.G Tabs
 Rating:
4/5 (4 votes)
Nowwhy2 lessons Tabs too difficult? Try these video lessons and learn fast
1
                

A     x02220
G     320003
Bm    x24432
C#m   x46654

intro 1
--------------------------------------------------------------------|
-3-3-3-3-3-5-3---7-7-7-7-7-5-7--5--3-3-3-3--5-5-5-5-3-3-3-3--5-3----|
-4-4-4-4-4-4-4---7-7-7-7-7-7-7--4--4-4-4-4--4-4-4-4-4-4-4-4--4-4----|
-4-4-4-4-4-4-4---7-7-7-7-7-7-7--5--5-5-5-5--5-5-5-5-5-5-5-5--5-5----|
--------------------------------------------------------------------|
--------------------------------------------------------------------|

intro 2
--------7-------------5-7--------55-7-------------------------------|
--8-7-8---7-8--7-8--7------8--7-5------8--7-5-3---------------------|
--------------------------------------------------------------------|
--------------------------------------------------------------------|
--------------------------------------------------------------------|
--------------------------------------------------------------------|

Verse 1

Bm
Tiada terlintas langsung
          A                   G
Nowwhy 2 ku untuk menduakan dirimu
            G
Suka ragaku buka jasadmu

Verse 2
 Bm
Tiada terlintas langsung
         A                         G
Nowwhy 2 ku untuk mempersoalkan caramu
            G
Suka ragaku buka jasadmu


by

Fadhli Dawek
            
Submit corrections

comments powered by Disqus
↑ Back to top | O.A.G Tabs for Nowwhy2. Lyrics for acoustic guitar and electric guitar. 1 Tablatures and chords are parodies/interpretations of the original songs. You may use it for private study, scholarship, research or language learning purposes only