» » »

Nwa, Express Yourself Bass tabs (ver.2)

Artists:  A B C D E F G H I J K L M N O P Q R S T U V W X Y Z # 

Express Yourself Bass tabs (ver.2)

Nwa Tabs
 Rating:
3.1/5 (7 votes)
Express Yourself lessons Tabs too difficult? Try these video lessons and learn fast
                G|--------------------------------------|
D|--------------------------------------|
A|--6-----------------------------------|
E|------3h4--6--4-3-4----4h3h4--6-------|

G|--------------------------------------|
D|--------------------------------------|
A|--6-------------------------------5---|
E|------3h4--6--4-3-4----4h3h4--6-------| 

and that just repeats through out the song
            
Submit corrections

comments powered by Disqus
↑ Back to top | Nwa Bass for Express Yourself. Lyrics for acoustic guitar and electric guitar. Tablatures and chords are parodies/interpretations of the original songs. You may use it for private study, scholarship, research or language learning purposes only