» » »

Express Yourself Bass tabs (ver.1)

Artists:  A B C D E F G H I J K L M N O P Q R S T U V W X Y Z # 

Express Yourself Bass tabs (ver.1)

Nwa
Rating:
4/5 (7 votes)

Hard to play? Try these video lessons and learn fast.
                Express yourself

G-8----(8)-------------------------------3-|
D----------5-6-8---6-5----6-----6-5-3------|
A----6---------------------6---------------|
E------------------------------------------|


G-8----(8)-------------------------------3-|
D----------5-6-8---6-5----6-----6-5-3------|
A----6---------------------6---------------|
E------------------------------------------|
            
Hard to play? Try these video lessons and learn fast. | Correct




comments powered by Disqus
↑ Back to top | Tablatures and chords are parodies/interpretations of the original songs. You may use it for private study, scholarship, research or language learning purposes only