>
 >
Nothing Will Change

Nothing Will Change Guitar Tabs

Number One Fan - Nothing Will Change chords, tabs, tablatures, lyrics

Guitar lessons | Add/correct | Request | Top 50 tabs Artists:  A B C D E F G H I J K L M N O P Q R S T U V W X Y Z 0-9

Nothing Will Change Guitar Tabs – Number One Fan

CD, Sheet music, Poster

Do you like Nothing Will Change? Share with your friends now
Tabs
-------------------------------------------------------------------------------
-------------------------------------------------------------------------------

Gtr I (E A D G B E) - 'Rythem Guitar'
Gtr II (E A D G B E) - 'Lead Guitar'
Gtr III (E A D G B E) - 'Acoustic '


 Intro
    C5             C5        C5                 C5
 4/4
  Gtr I
  E E E E Q  E E    E E Q  E E E E   Q  E E E E Q
|----------------|-----------------|---------------|
|----------------|-----------------|---------------|
|-5-5-x-5-5--5-5-|--x-5-5--5-5-x-5-|-5--5-5-x-5-5--|
|-5-5-x-5-5--5-5-|--x-5-5--5-5-x-5-|-5--5-5-x-5-5--|
|-3-3-x-3-3--3-3-|--x-3-3--3-3-x-3-|-3--3-3-x-3-3--|
|----------------|-----------------|---------------|


  D5                D5
   E E E E Q  E E   E E Q  E E E E
|-----------------|-------------------|
|-----------------|-------------------|
|-/7-7-x-7-7--7-7-|-x-7-7--7-7-x-7----|
|--7-7-x-7-7--7-7-|-x-7-7--7-7-x-7----|
|--5-5-x-5-5--5-5-|-x-5-5--5-5-x-5----|
|-----------------|-------------------|


      Db5
  E E H    +E  +E
|---------------------|
|---------------------|
|-x-x-6----(6)-(6)----|
|-x-x-6----(6)-(6)----|
|-x-x-4----(4)-(4)----|
|---------------------|


    C5               C5                        C5
  E E E E  Q   E E    E  E Q  E E E E    Q   E E E E Q
|------------------|------------------|------------------------|
|------------------|------------------|------------------------|
|-5-5-x-5--5---5-5-|--x--5-5--5-5-x-5-|--5---5-5-x-5-5---------|
|-5-5-x-5--5---5-5-|--x--5-5--5-5-x-5-|--5---5-5-x-5-5---------|
|-3-3-x-3--3---3-3-|--x--3-3--3-3-x-3-|--3---3-3-x-3-3---------|
|------------------|------------------|------------------------|
|
| Gtr II
| H       +Q   Q     +H           H     +Q       H      +Q
|-9-------(9)--7---|-(7)----------5---|-(5)------7------(7)----|
|------------------|------------------|------------------------|
|------------------|------------------|------------------------|
|------------------|------------------|------------------------|
|------------------|------------------|------------------------|
|------------------|------------------|------------------------|


  D5                    D5                    D5
   E E   E  E  Q  E E     E  E Q         E  E E E
|---------------------|------------------------------|
|---------------------|------------------------------|
|--7-7---x--7--7--7-7-|---x--7-7---------7--7-x-7----|
|--7-7---x--7--7--7-7-|---x--7-7---------7--7-x-7----|
|--5-5---x--5--5--5-5-|---x--5-5---------5--5-x-5----|
|---------------------|------------------------------|
|
|  H    +Q     Q         +H       E  E   E  E
|-12---(12)---10------|-(10)-----12h13--12h13--------|
|---------------------|------------------------------|
|---------------------|------------------------------|
|---------------------|------------------------------|
|---------------------|------------------------------|
|---------------------|------------------------------|


      Db5
  E E H    +E  +E
|---------------------|
|---------------------|
|-x-x-6----(6)-(6)----|
|-x-x-6----(6)-(6)----|
|-x-x-4----(4)-(4)----|
|---------------------|


 Verse
     C5             D5         G5  G5       D
 4/4
  Q  E E E E Q    E E E E Q  E E   E E Q  E E E E
|---------------|----------------|----------------|
|---------------|----------------|----------------|
|----5-5-5-5----|-7-7-7-7--------|----------------|
|----5-5-5-5----|-7-7-7-7----5-5-|-5-5----7-7-7-7-|
|----3-3-3-3----|-5-5-5-5----5-5-|-5-5----5-5-5-5-|
|---------------|------------3-3-|-3-3----5-5-5-5-|


       C5           D5       G5    G5       D
 4/4
  Q  E E E E Q    E E E E Q  E E   E E Q  E E E E
|---------------|----------------|----------------|
|---------------|----------------|----------------|
|----5-5-5-5----|-7-7-7-7--------|----------------|
|----5-5-5-5----|-7-7-7-7----5-5-|-5-5----7-7-7-7-|
|----3-3-3-3----|-5-5-5-5----5-5-|-5-5----5-5-5-5-|
|---------------|------------3-3-|-3-3----5-5-5-5-|


              C5         D5                 G5          D
 4/4
  Q     E  E  E E Q    E E  E  E Q  E E   E E Q    E  E E E
|--------------------|------------------|-------------------|
|--------------------|------------------|-------------------|
|-------5--5--5-5----|-7-7--7--7--------|-------------------|
|-------5--5--5-5----|-7-7--7--7----5-5-|-5-5------7--7-7-7-|
|-------3--3--3-3----|-5-5--5--5----5-5-|-5-5------5--5-5-5-|
|--------------------|--------------3-3-|-3-3------5--5-5-5-|
|
| Gtr II
| Q +Q  Q +Q           Q Q +Q  Q          Q Q   Q +Q
|-0-(0)-0-(0)--------|-0-0-(0)-0--------|-0-0---0-(0)-------|
|-5-(5)h8-(8)--------|-5-5-(5)h8--------|-0-0---5-(5)-------|
|--------------------|------------------|-------------------|
|--------------------|------------------|-------------------|
|--------------------|------------------|-------------------|
|--------------------|------------------|-------------------|


          C5               D5           G5          D
 4/4
                                                        <
  Q     E  E  E E Q    E E  E  E Q  E E   E E Q   E E E E
|--------------------|------------------|-----------------|
|--------------------|------------------|-----------------|
|-------5--5--5-5----|-7-7--7--7--------|-----------------|
|-------5--5--5-5----|-7-7--7--7----5-5-|-5-5-----7-7-7-7-|
|-------3--3--3-3----|-5-5--5--5----5-5-|-5-5-----5-5-5-5-|
|--------------------|--------------3-3-|-3-3-----5-5-5-5-|
|
| Q +Q  Q +Q           Q Q +Q  Q            Q Q Q Q
|-0-(0)-0-(0)--------|-0-0-(0)-0--------|---0-0-0-0-------|
|-5-(5)h8-(8)--------|-5-5-(5)h8--------|---0-0-5-5-------|
|--------------------|------------------|-----------------|
|--------------------|------------------|-----------------|
|--------------------|------------------|-----------------|
|--------------------|------------------|-----------------|


    C5             D5             G5            D
 4/4
  E E E E Q    E E   E E Q    E E E E   Q   E E E E Q
|------------------|------------------|----------------|
|------------------|------------------|----------------|
|-5-5-5-5------7-7-|-7-7--------------|----------------|
|-5-5-5-5------7-7-|-7-7------5-5-5-5-|-----7-7-7-7----|
|-3-3-3-3------5-5-|-5-5------5-5-5-5-|-----5-5-5-5----|
|------------------|----------3-3-3-3-|-----5-5-5-5----|
|
| Gtr II
|                                                   ~
| E E E E E E  E E   E E E  E E E E E   E E E E E E Q
|------------------|------------------|----------------|
|------------------|------------------|----------------|
|------------------|------------------|----------------|
|-0-7-9------------|------------------|-0-7-9----------|
|-------0-7-9-10-9-|-0-7-9-10-7-0-5-7-|-------0-7-9-5--|
|------------------|------------------|----------------|


    C5             D5             G5            D
 4/4
  E E E E Q    E E   E E Q    E E E E   Q   E E E E Q
|------------------|------------------|----------------|
|------------------|------------------|----------------|
|-5-5-5-5------7-7-|-7-7--------------|----------------|
|-5-5-5-5------7-7-|-7-7------5-5-5-5-|-----7-7-7-7----|
|-3-3-3-3------5-5-|-5-5------5-5-5-5-|-----5-5-5-5----|
|------------------|----------3-3-3-3-|-----5-5-5-5----|
|
| Gtr II
|                                                   ~
| E E E E E E  E E   E E E  E E E E E   E E E E E E Q
|------------------|------------------|----------------|
|------------------|------------------|----------------|
|------------------|------------------|----------------|
|-0-7-9------------|------------------|-0-7-9----------|
|-------0-7-9-10-9-|-0-7-9-10-7-0-5-7-|-------0-7-9-5--|
|------------------|------------------|----------------|


    C5           A5               G5            D
 4/4
  E E E E Q    E E   E E Q    E E E E   Q   E E E E Q
|------------------|------------------|----------------|
|------------------|------------------|----------------|
|-5-5-5-5------7-7-|-7-7--------------|----------------|
|-5-5-5-5------7-7-|-7-7------5-5-5-5-|-----7-7-7-7----|
|-3-3-3-3------5-5-|-5-5------5-5-5-5-|-----5-5-5-5----|
|------------------|----------3-3-3-3-|-----5-5-5-5----|
|
|                                                   ~
| E E E E E E  E E   E E E  E E E E E   E E E E E E Q
|------------------|------------------|----------------|
|------------------|------------------|----------------|
|------------------|------------------|----------------|
|-0-7-9------------|------------------|-0-7-9----------|
|-------0-7-9-10-9-|-0-7-9-10-7-0-5-7-|-------0-7-9-5--|
|------------------|------------------|----------------|


      C5             A5           G5            D
 4/4
  E E E E Q    E E   E E Q    E E E E   Q   E E E E Q
|------------------|------------------|----------------|
|------------------|------------------|----------------|
|-5-5-5-5------7-7-|-7-7--------------|----------------|
|-5-5-5-5------7-7-|-7-7------5-5-5-5-|-----7-7-7-7----|
|-3-3-3-3------5-5-|-5-5------5-5-5-5-|-----5-5-5-5----|
|------------------|----------3-3-3-3-|-----5-5-5-5----|
|
| Gtr II
|                                                   ~
| E E E E E E  E E   E E E  E E E E E   E E E E E E Q
|------------------|------------------|----------------|
|------------------|------------------|----------------|
|------------------|------------------|----------------|
|-0-7-9------------|------------------|-0-7-9----------|
|-------0-7-9-10-9-|-0-7-9-10-7-0-5-7-|-------0-9-7-5--|
|------------------|------------------|----------------|


 Pre-Chorus
    D5           B5
 3/4
  E E E E Q    E E E E Q
|------------|------------|
|------------|------------|
|-7-7-x-7-7--|-4-4-x-4-4--|
|-7-7-x-7-7--|-4-4-x-4-4--|
|-5-5-x-5-5--|-2-2-x-2-2--|
|------------|------------|


    D5        B5    B5    C5
 4/4
  E E E E Q E E   E E Q E E E E
|---------------|-----------------|
|---------------|-----------------|
|-7-7-x-7-7-4-4-|-x-4-4-5-5-x-5---|
|-7-7-x-7-7-4-4-|-x-4-4-5-5-x-5---|
|-5-5-x-5-5-2-2-|-x-2-2-3-3-x-3---|
|---------------|-----------------|
|
| Gtr II
| E E E E Q E E   E E Q E E E E
|---------------|-----------------|
|---------------|-----------------|
|-7-7-x-7-7-4-4-|-x-4-4-5-5-x-5---|
|-7-7-x-7-7-4-4-|-x-4-4-5-5-x-5---|
|-5-5-x-5-5-2-2-|-x-2-2-3-3-x-3---|
|---------------|-----------------|


  C5              G5
  Q +Q       E  E  E   E
|---------------------------|
|---------------------------|
|-5-(5)-----12-12-12--12----|
|-5-(5)---------------------|
|-3-(3)-----10-10-10--10----|
|---------------------------|
|
| Q     +Q        +H
|---------------------------|
|---------------------------|
|-5-----(5)-------(5)-------|
|-5-----(5)-------(5)-------|
|-3-----(3)-------(3)-------|
|---------------------------|


 Chorus
            C5          D5
  E E E E E E E E   E E E E E E E E
|-----------------|-----------------|
|-----------------|-----------------|
|-5-5-5-5-5-5-5-5-|-7-7-7-7-7-7-7-7S|
|-5-5-5-5-5-5-5-5-|-7-7-7-7-7-7-7-7-|
|-3-3-3-3-3-3-3-3-|-5-5-5-5-5-5-5-5-|
|-----------------|-----------------|
|
| Gtr II
| E E E E E E E E   E E E E E E E E
|-----------------|-----------------|
|-----------------|-----------------|
|-5-5-5-5-5-5-5-5-|-7-7-7-7-7-7-7-7S|
|-x-x-x-x-x-x-x-x-|-x-x-x-x-x-x-x-x-|
|-3-3-3-3-3-3-3-3-|-5-5-5-5-5-5-5-5-|
|-----------------|-----------------|


        E5                F#5      G5
  E E E E E E E E    E  E  E  E  E  E  E  E
|-----------------|-------------------------|
|-----------------|-------------------------|
|-9-9-9-9-9-9-9-9-|-11-11-11-11-12-12-12-12-|
|-9-9-9-9-9-9-9-9-|-11-11-11-11-12-12-12-12-|
|-7-7-7-7-7-7-7-7-|--9--9--9--9-10-10-10-10-|
|-----------------|-------------------------|
|
| E E E E E E E E    E  E  E  E  E  E  E  E
|-----------------|-------------------------|
|-----------------|-------------------------|
|-9-9-9-9-9-9-9-9-|-11-11-11-11-12-12-12-12-|
|-x-x-x-x-x-x-x-x-|--x--x--x--x--x--x--x--x-|
|-7-7-7-7-7-7-7-7-|--9--9--9--9-10-10-10-10-|
|-----------------|-------------------------|


          C5            D5                      E5              D5
  E E E E E E E E   E E E E E E E E   E E E E E E E E   E E E E E E E E
|-----------------|-----------------|-----------------|-----------------|
|-----------------|-----------------|-----------------|-----------------|
|-5-5-5-5-5-5-5-5-|-7-7-7-7-7-7-7-7S|=9-9-9-9-9-9-9-9-|-7-7-7-7-7-7-7-7-|
|-5-5-5-5-5-5-5-5-|-7-7-7-7-7-7-7-7-|-9-9-9-9-9-9-9-9-|-7-7-7-7-7-7-7-7-|
|-3-3-3-3-3-3-3-3-|-5-5-5-5-5-5-5-5-|-7-7-7-7-7-7-7-7-|-5-5-5-5-5-5-5-5-|
|-----------------|-----------------|-----------------|-----------------|
|
| Gtr II
| E E E E E E E E   E E E E E E E E   E E E E E E E E   E E E E E E E E
|-----------------|-----------------|-----------------|-----------------|
|-----------------|-----------------|-----------------|-----------------|
|-5-5-5-5-5-5-5-5-|-7-7-7-7-7-7-7-7S|=9-9-9-9-9-9-9-9-|-7-7-7-7-7-7-7-7-|
|-x-x-x-x-x-x-x-x-|-x-x-x-x-x-x-x-x-|-x-x-x-x-x-x-x-x-|-x-x-x-x-x-x-x-x-|
|-3-3-3-3-3-3-3-3-|-5-5-5-5-5-5-5-5-|-7-7-7-7-7-7-7-7-|-5-5-5-5-5-5-5-5-|
|-----------------|-----------------|-----------------|-----------------|


 Verse
      C5         A5  A5           G5            D
 4/4
  E E E E Q    E E   E E Q    E E E E   Q   E E E E Q
|------------------|------------------|----------------|
|------------------|------------------|----------------|
|-5-5-5-5------7-7-|-7-7--------------|----------------|
|-5-5-5-5------7-7-|-7-7------5-5-5-5-|-----7-7-7-7----|
|-3-3-3-3------5-5-|-5-5------5-5-5-5-|-----5-5-5-5----|
|------------------|----------3-3-3-3-|-----5-5-5-5----|
|
| Gtr II
|                                                   ~
| E E E E E E  E E   E E E  E E E E E   E E E E E E Q
|------------------|------------------|----------------|
|------------------|------------------|----------------|
|------------------|------------------|----------------|
|-0-7-9------------|------------------|-0-7-9----------|
|-------0-7-9-10-9-|-0-7-9-10-7-0-5-7-|-------0-7-9-5--|
|------------------|------------------|----------------|


    C5           D5  D5         G5            D
 4/4
  E E E E Q    E E   E E Q    E E E E   Q   E E E E Q
|------------------|------------------|----------------|
|------------------|------------------|----------------|
|-5-5-5-5------7-7-|-7-7--------------|----------------|
|-5-5-5-5------7-7-|-7-7------5-5-5-5-|-----7-7-7-7----|
|-3-3-3-3------5-5-|-5-5------5-5-5-5-|-----5-5-5-5----|
|------------------|----------3-3-3-3-|-----5-5-5-5----|
|
| Gtr II
|                                                   ~
| E E E E E E  E E   E E E  E E E E E   E E E E E E Q
|------------------|------------------|----------------|
|------------------|------------------|----------------|
|------------------|------------------|----------------|
|-0-7-9------------|------------------|-0-7-9----------|
|-------0-7-9-10-9-|-0-7-9-10-7-0-5-7-|-------0-7-9-5--|
|------------------|------------------|----------------|


      C5         D5  D5         G5            D
 4/4
  E E E E Q    E E   E E Q    E E E E   Q   E E E E Q
|------------------|------------------|----------------|
|------------------|------------------|----------------|
|-5-5-5-5------7-7-|-7-7--------------|----------------|
|-5-5-5-5------7-7-|-7-7------5-5-5-5-|-----7-7-7-7----|
|-3-3-3-3------5-5-|-5-5------5-5-5-5-|-----5-5-5-5----|
|------------------|----------3-3-3-3-|-----5-5-5-5----|
|
| Gtr II
|                                                   ~
| E E E E E E  E E   E E E  E E E E E   E E E E E E Q
|------------------|------------------|----------------|
|------------------|------------------|----------------|
|------------------|------------------|----------------|
|-0-7-9------------|------------------|-0-7-9----------|
|-------0-7-9-10-9-|-0-7-9-10-7-0-5-7-|-------0-7-9-5--|
|------------------|------------------|----------------|


    C5        D5     D5         G5            D
 4/4
  E E E E Q    E E   E E Q    E E E E   Q   E E E E Q
|------------------|------------------|----------------|
|------------------|------------------|----------------|
|-5-5-5-5------7-7-|-7-7--------------|----------------|
|-5-5-5-5------7-7-|-7-7------5-5-5-5-|-----7-7-7-7----|
|-3-3-3-3------5-5-|-5-5------5-5-5-5-|-----5-5-5-5----|
|------------------|----------3-3-3-3-|-----5-5-5-5----|
|
| Gtr II
|                                                   ~
| E E E E E E  E E   E E E  E E E E E   E E E E E E Q
|------------------|------------------|----------------|
|------------------|------------------|----------------|
|------------------|------------------|----------------|
|-0-7-9------------|------------------|-0-7-9----------|
|-------0-7-9-10-9-|-0-7-9-10-7-0-5-7-|-------0-7-9-5--|
|------------------|------------------|----------------|


 Pre-Chorus
    D5           B5
 3/4
  E E E E Q    E E E E Q
|------------|------------|
|------------|------------|
|-7-7-x-7-7--|-4-4-x-4-4--|
|-7-7-x-7-7--|-4-4-x-4-4--|
|-5-5-x-5-5--|-2-2-x-2-2--|
|------------|------------|


        D5     B5    B5     E5      E5     C5           D5     B5
 4/4
  E E E E Q  E E   E E Q  E E E E   Q  E E E E Q    E E E E Q  E E
|----------------|----------------|---------------|-----------------|
|----------------|----------------|---------------|-----------------|
|-7-7-x-7-7--4-4-|-x-4-4--9-9-x-9-|-9--5-5-x-5-5--|-7-7-x-7-7--4-4--|
|-7-7-x-7-7--4-4-|-x-4-4--9-9-x-9-|-9--5-5-x-5-5--|-7-7-x-7-7--4-4--|
|-5-5-x-5-5--2-2-|-x-2-2--7-7-x-7-|-7--3-3-x-3-3--|-5-5-x-5-5--2-2--|
|----------------|----------------|---------------|-----------------|
|
| Gtr II
| E E E E Q  E E   E E Q  E E E E   Q  E E E E Q    E E E E Q  E E
|----------------|----------------|---------------|-----------------|
|----------------|----------------|---------------|-----------------|
|-7-7-x-7-7--4-4-|-x-4-4--9-9-x-9-|-9--5-5-x-5-5--|-7-7-x-7-7--4-4--|
|-7-7-x-7-7--4-4-|-x-4-4--9-9-x-9-|-9--5-5-x-5-5--|-7-7-x-7-7--4-4--|
|-5-5-x-5-5--2-2-|-x-2-2--7-7-x-7-|-7--3-3-x-3-3--|-5-5-x-5-5--2-2--|
|----------------|----------------|---------------|-----------------|


    B5     C5      C5          F#5
  E E Q  E E E E   Q  +Q   E E E E
|----------------|-----------------|
|----------------|-----------------|
|-x-4-4--5-5-x-5-|-5--(5)----------|
|-x-4-4--5-5-x-5-|-5--(5)----------|
|-x-2-2--3-3-x-3-|-3--(3)--4-4-4-4-|
|----------------|---------2-2-2-2-|
|
| e E Q  E E E E   Q  +Q   H
|----------------|-----------------|
|----------------|-----------------|
|-x-4-4--5-5-x-5-|-5--(5)----------|
|-x-4-4--5-5-x-5-|-5--(5)----------|
|-x-2-2--3-3-x-3-|-3--(3)----------|
|----------------|-----------------|


 Chorus
        C5                D5
  E E E E E E E E   E E E E E E E E
|-----------------|-----------------|
|-----------------|-----------------|
|-5-5-5-5-5-5-5-5-|-7-7-7-7-7-7-7-7S|
|-5-5-5-5-5-5-5-5-|-7-7-7-7-7-7-7-7-|
|-3-3-3-3-3-3-3-3-|-5-5-5-5-5-5-5-5-|
|-----------------|-----------------|
|
| Gtr II
| E E E E E E E E   E E E E E E E E
|-----------------|-----------------|
|-----------------|-----------------|
|-5-5-5-5-5-5-5-5-|-7-7-7-7-7-7-7-7S|
|-x-x-x-x-x-x-x-x-|-x-x-x-x-x-x-x-x-|
|-3-3-3-3-3-3-3-3-|-5-5-5-5-5-5-5-5-|
|-----------------|-----------------|


        E5                F#5         G5
  E E E E E E E E    E  E  E  E  E  E  E  E
|-----------------|-------------------------|
|-----------------|-------------------------|
|-9-9-9-9-9-9-9-9-|-11-11-11-11-12-12-12-12-|
|-9-9-9-9-9-9-9-9-|-11-11-11-11-12-12-12-12-|
|-7-7-7-7-7-7-7-7-|--9--9--9--9-10-10-10-10-|
|-----------------|-------------------------|
|
| E E E E E E E E    E  E  E  E  E  E  E  E
|-----------------|-------------------------|
|-----------------|-------------------------|
|-9-9-9-9-9-9-9-9-|-11-11-11-11-12-12-12-12-|
|-x-x-x-x-x-x-x-x-|--x--x--x--x--x--x--x--x-|
|-7-7-7-7-7-7-7-7-|--9--9--9--9-10-10-10-10-|
|-----------------|-------------------------|


          C5              D5                E5                  D5
  E E E E E E E E   E E E E E E E E   E E E E E E E E   E E E E E E E E
|-----------------|-----------------|-----------------|-----------------|
|-----------------|-----------------|-----------------|-----------------|
|-5-5-5-5-5-5-5-5-|-7-7-7-7-7-7-7-7S|=9-9-9-9-9-9-9-9-|-7-7-7-7-7-7-7-7-|
|-5-5-5-5-5-5-5-5-|-7-7-7-7-7-7-7-7-|-9-9-9-9-9-9-9-9-|-7-7-7-7-7-7-7-7-|
|-3-3-3-3-3-3-3-3-|-5-5-5-5-5-5-5-5-|-7-7-7-7-7-7-7-7-|-5-5-5-5-5-5-5-5-|
|-----------------|-----------------|-----------------|-----------------|
|
| Gtr II
| E E E E E E E E   E E E E E E E E   E E E E E E E E   E E E E E E E E
|-----------------|-----------------|-----------------|-----------------|
|-----------------|-----------------|-----------------|-----------------|
|-5-5-5-5-5-5-5-5-|-7-7-7-7-7-7-7-7S|=9-9-9-9-9-9-9-9-|-7-7-7-7-7-7-7-7-|
|-x-x-x-x-x-x-x-x-|-x-x-x-x-x-x-x-x-|-x-x-x-x-x-x-x-x-|-x-x-x-x-x-x-x-x-|
|-3-3-3-3-3-3-3-3-|-5-5-5-5-5-5-5-5-|-7-7-7-7-7-7-7-7-|-5-5-5-5-5-5-5-5-|
|-----------------|-----------------|-----------------|-----------------|


 Bridge
  Q=60
      D                   D
  Gtr III
  E E E E Q +Q    E E  E  E Q +Q
|-5-5-5-5-5-(5)-|-5-5--5--5-5-(5)-|
|-7-7-7-7-7-(7)-|-7-7--7--7-7-(7)-|
|-7-7-7-7-7-(7)-|-7-7--7--7-7-(7)-|
|-7-7-7-7-7-(7)-|-7-7--7--7-7-(7)-|
|-5-5-5-5-5-(5)-|-5-5--5--5-5-(5)-|
|---------------|-----------------|
|
| >
| W                   +W
|---------------|-----------------|
|---------------|-----------------|
|-7-------------|-----(7)---------|
|-7-------------|-----(7)---------|
|-5-------------|-----(5)---------|
|---------------|-----------------|


        D             D                 D
  E E E E Q +Q    E E E E Q +Q    E E E E Q +Q
|-5-5-5-5-5-(5)-|-5-5-5-5-5-(5)-|-5-5-5-5-5-(5)---|
|-7-7-7-7-7-(7)-|-7-7-7-7-7-(7)-|-7-7-7-7-7-(7)---|
|-7-7-7-7-7-(7)-|-7-7-7-7-7-(7)-|-7-7-7-7-7-(7)---|
|-7-7-7-7-7-(7)-|-7-7-7-7-7-(7)-|-7-7-7-7-7-(7)---|
|-5-5-5-5-5-(5)-|-5-5-5-5-5-(5)-|-5-5-5-5-5-(5)---|
|---------------|---------------|-----------------|
|
|         W       E E E E Q +Q    E E E E E  E  Q
|---------------|---5---0-0-(0)-|-0-5-0-0----5----|
|---------------|-0---8---8-(8)-|-----8p5-5-----0-|
|---------------|---------------|-----------------|
|---------------|---------------|-----------------|
|---------------|---------------|-----------------|
|---------------|---------------|-----------------|


      D                       D                     D
  E E E E  Q  +Q          E E E E Q +Q        E E E E Q +Q
|-5-5-5-5--5--(5)-------|-5-5-5-5-5-(5)-----|-5-5-5-5-5-(5)----------------|
|-7-7-7-7--7--(7)-------|-7-7-7-7-7-(7)-----|-7-7-7-7-7-(7)----------------|
|-7-7-7-7--7--(7)-------|-7-7-7-7-7-(7)-----|-7-7-7-7-7-(7)----------------|
|-7-7-7-7--7--(7)-------|-7-7-7-7-7-(7)-----|-7-7-7-7-7-(7)----------------|
|-5-5-5-5--5--(5)-------|-5-5-5-5-5-(5)-----|-5-5-5-5-5-(5)----------------|
|-----------------------|-------------------|------------------------------|
|
|                                                              <
| E E E E +E   E  E +E    E E E E E  E  E E                    H    +H
|-0-----0-(0)--0--0-(0)-|-0-0---0----0------|------------------------------|
|---5h8-8-(8)--5--5-(5)-|-5h8p0-5-0-----0---|------------------------------|
|-----------------------|-----------------5-|------------------5----(5)----|
|-----------------------|-------------------|------------------5----(5)----|
|-----------------------|-------------------|------------------3----(3)----|
|-----------------------|-------------------|------------------------------|


 Chorus
  Q=120
        C5                  D5
  Gtr I
  E E E E E E E E   E E E E E E E E
|-----------------|-----------------|
|-----------------|-----------------|
|-5-5-5-5-5-5-5-5-|-7-7-7-7-7-7-7-7S|
|-5-5-5-5-5-5-5-5-|-7-7-7-7-7-7-7-7-|
|-3-3-3-3-3-3-3-3-|-5-5-5-5-5-5-5-5-|
|-----------------|-----------------|
|
| Gtr II
| E E E E E E E E   E E E E E E E E
|-----------------|-----------------|
|-----------------|-----------------|
|-5-5-5-5-5-5-5-5-|-7-7-7-7-7-7-7-7S|
|-x-x-x-x-x-x-x-x-|-x-x-x-x-x-x-x-x-|
|-3-3-3-3-3-3-3-3-|-5-5-5-5-5-5-5-5-|
|-----------------|-----------------|


          E5              F#5      G5
  E E E E E E E E    E  E  E  E  E  E  E  E
|-----------------|-------------------------|
|-----------------|-------------------------|
|-9-9-9-9-9-9-9-9-|-11-11-11-11-12-12-12-12-|
|-9-9-9-9-9-9-9-9-|-11-11-11-11-12-12-12-12-|
|-7-7-7-7-7-7-7-7-|--9--9--9--9-10-10-10-10-|
|-----------------|-------------------------|
|
| E E E E E E E E    E  E  E  E  E  E  E  E
|-----------------|-------------------------|
|-----------------|-------------------------|
|-9-9-9-9-9-9-9-9-|-11-11-11-11-12-12-12-12-|
|-x-x-x-x-x-x-x-x-|--x--x--x--x--x--x--x--x-|
|-7-7-7-7-7-7-7-7-|--9--9--9--9-10-10-10-10-|
|-----------------|-------------------------|


        C5                D5                  E5                D5
  E E E E E E E E   E E E E E E E E   E E E E E E E E   E E E E E E E E
|-----------------|-----------------|-----------------|-----------------|
|-----------------|-----------------|-----------------|-----------------|
|-5-5-5-5-5-5-5-5-|-7-7-7-7-7-7-7-7S|=9-9-9-9-9-9-9-9-|-7-7-7-7-7-7-7-7-|
|-5-5-5-5-5-5-5-5-|-7-7-7-7-7-7-7-7-|-9-9-9-9-9-9-9-9-|-7-7-7-7-7-7-7-7-|
|-3-3-3-3-3-3-3-3-|-5-5-5-5-5-5-5-5-|-7-7-7-7-7-7-7-7-|-5-5-5-5-5-5-5-5-|
|-----------------|-----------------|-----------------|-----------------|
|
| Gtr II
| E E E E E E E E   E E E E E E E E   E E E E E E E E   E E E E E E E E
|-----------------|-----------------|-----------------|-----------------|
|-----------------|-----------------|-----------------|-----------------|
|-5-5-5-5-5-5-5-5-|-7-7-7-7-7-7-7-7S|=9-9-9-9-9-9-9-9-|-7-7-7-7-7-7-7-7-|
|-x-x-x-x-x-x-x-x-|-x-x-x-x-x-x-x-x-|-x-x-x-x-x-x-x-x-|-x-x-x-x-x-x-x-x-|
|-3-3-3-3-3-3-3-3-|-5-5-5-5-5-5-5-5-|-7-7-7-7-7-7-7-7-|-5-5-5-5-5-5-5-5-|
|-----------------|-----------------|-----------------|-----------------|


 Outro
        C5                 D5                   E5                  D5
  E E E E E E  E E   E E E  E E E E E   E E E E E E  E E   E E E  E E E E E
|------------------|------------------|------------------|------------------|
|------------------|------------------|------------------|------------------|
|-5-5-5-5-5-5--5-5-|-7-7-7--7-7-7-7-7S|=9-9-9-9-9-9--9-9-|-7-7-7--7-7-7-7-7-|
|-5-5-5-5-5-5--5-5-|-7-7-7--7-7-7-7-7-|-9-9-9-9-9-9--9-9-|-7-7-7--7-7-7-7-7-|
|-3-3-3-3-3-3--3-3-|-5-5-5--5-5-5-5-5-|-7-7-7-7-7-7--7-7-|-5-5-5--5-5-5-5-5-|
|------------------|------------------|------------------|------------------|
|
| E E E E E E  E E   E E E  E E E E E   E E E E E E  E E   E E E  E E E E E
|------------------|------------------|------------------|------------------|
|------------------|------------------|------------------|------------------|
|------------------|------------------|------------------|------------------|
|-0-7-9------------|------------------|-0-7-9------------|------------------|
|-------0-7-9-10-9-|-0-7-9-10-7-0-5-7-|-------0-7-9-10-9-|-0-7-9-10-7-0-5-7-|
|------------------|------------------|------------------|------------------|


          C5               D5                 E5                    D5
  E E E E E E  E E   E E E  E E E E E   E E E E E E  E E   E E E  E E E E E
|------------------|------------------|------------------|------------------|
|------------------|------------------|------------------|------------------|
|-5-5-5-5-5-5--5-5-|-7-7-7--7-7-7-7-7S|=9-9-9-9-9-9--9-9-|-7-7-7--7-7-7-7-7-|
|-5-5-5-5-5-5--5-5-|-7-7-7--7-7-7-7-7-|-9-9-9-9-9-9--9-9-|-7-7-7--7-7-7-7-7-|
|-3-3-3-3-3-3--3-3-|-5-5-5--5-5-5-5-5-|-7-7-7-7-7-7--7-7-|-5-5-5--5-5-5-5-5-|
|------------------|------------------|------------------|------------------|
|
| E E E E E E  E E   E E E  E E E E E   E E E E E E  E E   E E E  E E E E E
|------------------|------------------|------------------|------------------|
|------------------|------------------|------------------|------------------|
|------------------|------------------|------------------|------------------|
|-0-7-9------------|------------------|-0-7-9------------|------------------|
|-------0-7-9-10-9-|-0-7-9-10-7-0-5-7-|-------0-7-9-10-9-|-0-7-9-10-7-0-5-7-|
|------------------|------------------|------------------|------------------|


        D5     B5    B5     E5      E5   C5           D5         B5
 4/4
  E E E E Q  E E   E E Q  E E E E   Q  E E E E Q    E E E E Q  E E
|----------------|----------------|---------------|-----------------|
|----------------|----------------|---------------|-----------------|
|-7-7-x-7-7--4-4-|-x-4-4--9-9-x-9-|-9--5-5-x-5-5--|-7-7-x-7-7--4-4--|
|-7-7-x-7-7--4-4-|-x-4-4--9-9-x-9-|-9--5-5-x-5-5--|-7-7-x-7-7--4-4--|
|-5-5-x-5-5--2-2-|-x-2-2--7-7-x-7-|-7--3-3-x-3-3--|-5-5-x-5-5--2-2--|
|----------------|----------------|---------------|-----------------|
|
| E E E E Q  E E   E E Q  E E E E   Q  E E E E Q    E E E E Q  E E
|----------------|----------------|---------------|------------9-9--|
|----------------|----------------|---------------|-----------------|
|-7-7-x-7-7--4-4-|-x-4-4--9-9-x-9-|-9--5-5-x-5-5--|-7-7-x-7-7-------|
|-7-7-x-7-7--4-4-|-x-4-4--9-9-x-9-|-9--5-5-x-5-5--|-7-7-x-7-7-------|
|-5-5-x-5-5--2-2-|-x-2-2--7-7-x-7-|-7--3-3-x-3-3--|-5-5-x-5-5-------|
|----------------|----------------|---------------|-----------------|


      B5    C5        C5
  E E Q   E  E E  E    W           +W           +H     +H
|-------------------|------------|------------|---------------*|
|-------------------|------------|------------|---------------*|
|-x-4-4---5--5-x--5-|--5---------|-(5)--------|-(5)----(5)----*|
|-x-4-4---5--5-x--5-|--5---------|-(5)--------|-(5)----(5)----*|
|-x-2-2---3--3-x--3-|--3---------|-(3)--------|-(3)----(3)----*|
|-------------------|------------|------------|---------------*|
|
| e E Q   E  E E  E    H    H       W            W
|---9-9--10-10---10-|-10---------|------------|---------------*|
|-------------------|------------|------------|---------------*|
|-x------------x----|------------|------------|---------------*|
|-------------------|------------|------------|---------------*|
|-------------------|------------|------------|---------------*|
|-------------------|------------|------------|---------------*|




--------------------------------------------------------------------------------



Lyrics:

Dont go away yet 
I havent felt this dead in years 
This room's full of people 
With drinks in their hands, and nothing but nothing to say 

Dont go away yet 
It seems like everyone I love is gone 
Im praying for some kind of change 
Nothing's changed, and nothing will change 

Dont leave me now, you are the only thing left to believe in 
Dont let me down, you are the last thing that I feel complete in 

Dont go away yet 
True love is dying off 
Where everyone is searching 
Im just a face in the crowd 

Said you wanted distance, this is what you get 
The distance was half near far enough 
(I could take it all if you come back, I dreamed of you and it came true)

Duration Legend
---------------
W - whole; H - half; Q - quarter; E - 8th; S - 16th; T - 32nd; X - 64th; a - acciaccatura
+ - note tied to previous; . - note dotted; .. - note double dotted
Uncapitalized letters represent notes that are staccato (1/2 duration)
Irregular groupings are notated above the duration line
Duration letters will always appear directly above the note/fret number it represents the
duration for.  Duration letters with no fret number below them represent rests.  Multi-
bar rests are notated in the form Wxn, where n is the number of bars to rest for.  Low
melody durations appear below the staff

Tablature Legend
----------------
 h   - hammer-on
 p   - pull-off
 b   - bend
 pb  - pre-bend
 r   - bend release (if no number after the r, then release immediately)
 /\  - slide into or out of (from/to "nowhere")
 s   - legato slide
 S   - shift slide
 - natural harmonic
[n]  - artificial harmonic
n(n) - tapped harmonic
 ~   - vibrato
 tr  - trill
 T   - tap
 TP  - trem. picking
 PM  - palm muting
\n/  - tremolo bar dip; n = amount to dip
 \n  - tremolo bar down
 n/  - tremolo bar up
/n\  - tremolo bar inverted dip
 =   - hold bend; also acts as connecting device for hammers/pulls
 <> - volume swell (louder/softer)
 x   - on rhythm slash represents muted slash
 o   - on rhythm slash represents single note slash

Misc Legend
-----------
 |  - bar
||  - double bar
||o - repeat start
o|| - repeat end
*|  - double bar (ending)
 :  - bar (freetime)
 $  - Segno
 &  - Coda
Tempo markers -  = BPM(8/16=s8/s16), where s8 = swing 8ths, s16 = swing 16ths





Comments


Popular Number One Fan tabs & chords
Come On Intro Tabs
Come On Intro 1 Tabs
Don't Say Anything Tabs
It's Happening Tabs
Sorry Tabs
The Distance Tabs


Song lyrics



↑ Back to top | Tablatures and chords are parodies/interpretations of the original songs. You may use it for private study, scholarship, research or language learning purposes only
© 2014 AZChords.com Contact us | Privacy policy | DMCA | Add/correct tabs | Request tabs | Top 50 tabs