» » »

Nullset, Speechless Tabs (ver.1)

Artists:  A B C D E F G H I J K L M N O P Q R S T U V W X Y Z # 

Speechless Tabs (ver.1)

Nullset Tabs
Rating:
0/5 (0 votes)
Speechless lessons Tabs too difficult? Try these video lessons and learn fast
                ~ = Vibrato
/ and \ = Slides
^ = Bend
<5> = Natural Harmonics
pm = Palm Muting
p and h = pull off and hammer on, respectively


Intro:(Two guitars, but arranged for one)
D-----------------------------------------------------------
A-----------------------------------------------------------
F-----9-9------9-9------9-9------12-12----------------------
C-0-0-7-7--0-0-7-7--0-0-7-7--0-0-10-10---x3-----------------
G-0-0-7-7--0-0-7-7--0-0-7-7--0-0-10-10----------------------
C-0-0-7-7--0-0-7-7--0-0-7-7--0-0-10-10----------------------

D-----------------------------------------------------------
A-----------------------------------------------------------
F-----12-12------12-12-----1111-----1111--------------------
C-0-0-10-10--0-0-10-10--0-0-9-9--0-0-9-9--------------------
G-0-0-10-10--0-0-10-10--0-0-9-9--0-0-9-9--------------------
C-0-0-10-10--0-0-10-10--0-0-9-9--0-0-9-9--------------------

Intro2: Same as intro with one guitar using wah

Verse: Intro with slight palm mute

Pre-Chorus:
D-----------------------------------------------------------
A-----------------------------------------------------------
F-----9-9------9-9------12-12------14-14--------------------
C-0-0-7-7--0-0-7-7--0-0-10-10--0-0-12-12---x3---------------
G-0-0-7-7--0-0-7-7--0-0-10-10--0-0-12-12--------------------
C-0-0-7-7--0-0-7-7--0-0-10-10--0-0-12-12--------------------

D-----------------------------------------------------------
A-----------------------------------------------------------
F-----15-15------15-15------14-14------14-------------------
C-0-0-13-13--0-0-13-13--0-0-12-12--0-0-12-------------------
G-0-0-13-13--0-0-13-13--0-0-12-12--0-0-12-------------------
C-0-0-13-13--0-0-13-13--0-0-12-12--0-0-12-------------------

Chorus:
(Sometimes he plays the fill sometimes omits the last open chord, just listen)
D-----Part-one------------------|-Fill|---Part-one-twice----
A-------------------------------|-----|---------------------
F-------------------------------|-----|---------------------
C-0--2--0-2--0-2--0--2--0-------|-/10-|---------------------
G-0--2--0-2--0-2--0--2--0---x2--|-/10-|---------------------
C-0--2--0-2--0-2--0--2--0-------|-/10-|---------------------
Pm- - - - - - - - - - - -
D-------Part-two--------------------------------------------
A-----------------------------------------------------------
F-----7-7-7-7------5-5-5-5----------------------------------
C-0-0-x-x-x-x--0-0-x-x-x-x----------------------------------
G-0-0-5-5-5-5--0-0-3-3-3-3----------------------------------
C-0-0----------0-0------------------------------------------
Pm- -          - -

*Programmed noise*

*Verse*

*Pre-Chorus*

*Chorus*

Bridge Thing:
D-----15-----15----14----14-----|---12----12---12----12-----
A-------------------------------|---------------------------
F--12----12-----11----11-----x3-|-9----9----9-----9---------
C-------------------------------|---------------------------
G-------------------------------|---------------------------
C--------Part-1-----------------|------Part-2---------------

*Chorus*

*Verse and pre-chorus with heavy palm muting*

*Chorus*

*Bridge thing part 1*

End with:
D-12\\\\\--
A--x\\\\\--
F--9\\\\\--
C----------
G----------
C----------

*To noise into 'Smokewood'*

If you like the tabs please rate them. Any corrections or comments as always feel 
free to contact me.

-Zeradin
            

comments powered by Disqus
↑ Back to top | Nullset Tabs for Speechless. Lyrics for acoustic guitar and electric guitar. Tablatures and chords are parodies/interpretations of the original songs. You may use it for private study, scholarship, research or language learning purposes only