>
 >
Wang Dang Sweet Poontang

Wang Dang Sweet Poontang Guitar Tabs

Nugent Ted - Wang Dang Sweet Poontang chords, tabs, tablatures, lyrics

Guitar lessons | Add/correct | Request | Top 50 tabs Artists:  A B C D E F G H I J K L M N O P Q R S T U V W X Y Z 0-9

Wang Dang Sweet Poontang Guitar Tabs – Nugent Ted

CD, Sheet music, Poster

Do you like Wang Dang Sweet Poontang? Share with your friends now
Tabs
Gtr I (E A D G B E)

  Fast Rock Q=144
 4/4
  Gtr I
  E      E  E  E  E  E  Q     H     Q  E    E
|----|----------------------|--------------------|
|----|----------------------|--------------------|
|-2--|---2--------2---------|---------------2----|
|-2--|---2--------2---------|---------------2----|
|-0--|---0--------0---------|---------------0----|
|----|------3--4------------|--------------------|


  E  E  E  E  E  Q    H     Q  E  E     E  E  E  E
|-------------------|----------------|-------------|
|-------------------|----------------|-------------|
|-2--------2--------|-------------2--|--2--------2-|
|-2--------2--------|-------------2--|--2--------2-|
|-0--------0--------|-------------0--|--0--------0-|
|----3--4-----------|----------------|-----3--4----|


  E        E  E      E  E  E  E  E      E         E
|----------------|--------------------|--------------|
|----------------|--------------------|--------------|
|-------------2--|---2--------2-------|-----------2--|
|-------------2--|---2--------2-------|-----------2--|
|-------------0--|---0--------0-------|-----------0--|
|-3b5r=====3-----|------3--4-----3----|-3b5----------|


  E E E E E E E E E E E E E   E E E E E E E E   E E E E E
|---------------------------|-----------------|-----------|----|
|---------------------------|-----------------|-----------|----|
|-2-----2-----2-----2-----2-|-2-----2-----2---|---2-----2-|----|
|-2-----2-----2-----2-----2-|-2-----2-----2---|---2-----2-|----|
|-0-----0-----0-----0-----0-|-0-----0-----0---|---0-----0-|----|
|---3-4---3-4---3-4---3-4---|---3-4---3-4---3-|-4---3-4---|----|


                                              ~~
  E  E  E  E E E    E         E       E       E
|----------------|--------------|------------------|
|----------------|--8---------7-|-----5------14----|
|-2--------2-----|--9---------7-|-----5------14----|
|-2--------2-----|-10---------7-|-----5------14----|
|-0--------0-0-0-|--0---------0-|-----0-------0----|
|----3--4--------|--------------|------------------|


                              ~~
   E         E        E       E
|--------------|-------------------|
|--8---------7-|------5------14----|
|--9---------7-|------5------14----|
|-10---------7-|------5------14----|
|--0---------0-|------0-------0----|
|--------------|-------------------|


  E E E E E E E   E E E E E E E   E E E E E E   E E E E E E
|---------------|---------------|-------------|-------------|----|
|---------------|---------------|-------------|-------------|----|
|-5---------5-5-|-5---------5-5-|---------5-5-|---------5-5-|----|
|-5---------5-5-|-5---------5-5-|---------5-5-|---------5-5-|----|
|-3-3-3-3-3-3-3-|-3-3-3-3-3-3-3-|-3-3-3-3-3-3-|-3-3-3-3-3-3-|----|
|---------------|---------------|-------------|-------------|----|


  E E E E E E E   E E E E E E E   E E E E E E E E
|---------------|---------------|-----------------|
|---------------|---------------|-----------------|
|-2-----2-----2-|-2-----2-----2-|-5---------5-5-5-|
|-2-----2-----2-|-2-----2-----2-|-5---------5-5-5-|
|-0-----0-----0-|-0-----0-----0-|-3-3-3-3-3-3-3-3-|
|---3-4---3-4---|---3-4---3-4---|-----------------|


  E E E E E E E E   E E E E E E E E   E E
|-----------------|-----------------|-------|
|-----------------|-----------------|-------|
|---------5-5-----|-----5-5---------|-5-5---|
|---------5-5-----|-----5-5---------|-5-5---|
|-3-3-3-3-3-3-3-3-|-3-3-3-3-3-3-3-3-|-3-3---|
|-----------------|-----------------|-------|


                           ~~
   E         E    E        E
|--------------|--------------|----|
|--8---------7-|--5-------14--|----|
|--9---------7-|--5-------14--|----|
|-10---------7-|--5-------14--|----|
|--0---------0-|--0--------0--|----|
|--------------|--------------|----|


                           ~~
   E        E   E          E
|-------------|--------------|----|
|--8--------7-|-5---------14-|----|
|--9--------7-|-5---------14-|----|
|-10--------7-|-5---------14-|----|
|--0--------0-|-0----------0-|----|
|-------------|--------------|----|


   E E E     E E E E E E  E E E    E E E E E E  E E E   E E E E E E E    E E E
|-/5-5-5-||-/5-----------/5-5-5-|-/5-----------/5-5-5-|-8-5--------------------|
|-/5-5-5-||-/5-----------/5-5-5-|-/5-----------/5-5-5-|-----5-5-8-5------5-5-8-|
|--------||----7p5---5----------|----7p5---5----------|-------------7b9--------|
|--------||--------7---7--------|--------7---7--------|------------------------|
|--------||---------------------|---------------------|------------------------|
|--------||---------------------|---------------------|------------------------|


  E E E E E E E E E E E  E E E   E E E E E E E  E E E  E E E E E E E    E E
|-----------------------/5-5-5--/5-------------/5-5-5-/5----------------5-5--|
|-5---5-8-8-----5-5-----/5-5-5--/5-------------/5-5-5-/5-----------8b10-5-5--|
|---7-------7-7-----5--------------7-5-----5-------------7-5---5-------------|
|---------------------7----------------7-7---7---------------7---7-----------|
|----------------------------------------------------------------------------|
|----------------------------------------------------------------------------|


  E E E E E E E    E E E E E  E E E E E E E E E E E E E E E E E E E
|-8-5-----------------------------------------------------------------|
|-----5-5-8-5------5-5-8-5----5-5-8-5---5-8-5-----5-------------------|
|-------------7b9----------7----------7-------7-7---8-7-5-7-5---5-----|
|-------------------------------------------------------------7---7---|
|---------------------------------------------------------------------|
|---------------------------------------------------------------------|


  E E E E E E E E E E E E E E E E E E E E E E E E E E E E E E E E  E
|---------------------------------------------------------------------|
|---------------------------------------------------------------------|
|-7-5---5-------------7-5-----5---------------7-5-----5-4-------------|
|-----7---7-7-5---5-7-----7-7---7-7-7-5---5-7-----7-7-----7-5-5----5--|
|---------------7-----------------------7-----------------------7-----|
|---------------------------------------------------------------------|


  E E E E E E E E E E E E E E E E E E E E E E E E E E E E
|------------------------------------------------------------|
|------------------------------------------------------------|
|---5-4-----7-5---5-4-------5s4-------5s4-------5s4----------|
|-7-----7-7-----7-----7-7-7-----7-7-7-----6-7-7-----7-7-7----|
|------------------------------------------------------------|
|------------------------------------------------------------|


  E E E E E E E E  E  E  E  E  E  E  E  E  E E E  E   E E E
|--------------------------------------------------------------|
|-------------8------10-------10----10----10---8-10--10-8-7----|
|-7-5---5-5S9---9s11----11-11----11----11----9-----------------|
|-----7--------------------------------------------------------|
|--------------------------------------------------------------|
|--------------------------------------------------------------|


                  ~~~~~                                   ~~~~~
  E   E   E    E  E        E      E   E   E   E  E   E E  E         E
|--------------------------------------------------------10b12-----10----|
|-8--10--10---13-15b17----15b17--15--13--15--13-12-----8-----------------|
|---------------------------------------------------/9-------------------|
|------------------------------------------------------------------------|
|------------------------------------------------------------------------|
|------------------------------------------------------------------------|


  E E E E   E  E  E      E       E        E  E  E  E  E      E  E      E  E  E  E  E      E  E      E
|----------------12b15--12b15---12b15r===12----------12b15r=12-12b15r=12----------12b13r=12-12b13r=12--|
|---8---8-----10----------------------------10-10-10---------------------10-10-10----------------------|
|-9---9---/11------------------------------------------------------------------------------------------|
|------------------------------------------------------------------------------------------------------|
|------------------------------------------------------------------------------------------------------|
|------------------------------------------------------------------------------------------------------|


   E  E      E  E  E      E  E  E      E  E  E      E  E  E  E      E  E  E      E  E  E      E  E  E  E
|----12b15r=12----12b15r=12----12b15r=12----12b15r=12-------15b17r=15----15b17r=15----15b17r=15----15-15-|
|-10-----------10-----------10-----------10-----------10S13-----------13-----------13-----------13-------|
|--------------------------------------------------------------------------------------------------------|
|--------------------------------------------------------------------------------------------------------|
|--------------------------------------------------------------------------------------------------------|
|--------------------------------------------------------------------------------------------------------|


         ~~~~~~~~~~~
   E     E     E        E  E  E  E      E  E  E  E  E  E  E      E     E  E  E  E   E E E  E E E E
|-15b17-15----15b17----15--------------------------------------------------------------------------|
|----------------------------13-15b17--15-13----13----13-15b17--15b17-15-13-----------8---12p8-----|
|-------------------------14-----------------14----14-----------------------14-14\-/9---9------9-9-|
|--------------------------------------------------------------------------------------------------|
|--------------------------------------------------------------------------------------------------|
|--------------------------------------------------------------------------------------------------|


   E E E E  E E E E  E E E E    E E E E  E E E E   E E E E    E E E  E E E E
|----------------------------|-----------------------------|------------------|
|-12p8-----12p8-----12p8-----|-12p8-----12p8------12p8-----|-10p8---12p8------|
|------9-9------9-9------9-9-|------9-9------9-9-------9-9-|------9------9-9--|
|----------------------------|-----------------------------|------------------|
|----------------------------|-----------------------------|------------------|
|----------------------------|-----------------------------|------------------|


                                                                                  ~~~~~
   E  E  E  E  E  E  E  E  E  E      E  E         E  E  E  E    E  E  E  E  E  E  E       E  E  E
|-----------------------------------15------------------------------------------------------------|
|-12p10----12-10-15-13----13-15b17-----15b17r====15-13----13------------16-18-16-18b20---18-18p16-|
|-------11-------------14------------------------------14------17-16-17---------------------------|
|-------------------------------------------------------------------------------------------------|
|-------------------------------------------------------------------------------------------------|
|-------------------------------------------------------------------------------------------------|


   E  E  E   E  E  E  E  E  E  E  E  E  E      E  E  E  E  E  E  E  E  E   E  E  E  E  E  E  E     E  E
|------------------------------------------------------------------------------------------------------|
|--------------18-16-18-20-16----16-18-18b20--16----16-20-16----16----16--------15-13-------15b17-15p13|
|-17-15-17--17----------------17-----------------17----------17----17----/14-14-------14-14------------|
|------------------------------------------------------------------------------------------------------|
|------------------------------------------------------------------------------------------------------|
|------------------------------------------------------------------------------------------------------|


      ~~                                                             ~~~~~~
   E  E    E  E  E  E  E  E      E  E      E  E  E  E  E  E       E  E       E  E       E  E  E
|-------------------------------15--------15-------------15b17r==15-15b17r==15--------------------|
|-13---------15p13----13-15b17-----15b17-----15-13----13-----------------------15b17r==15-13-13---|
|----14---14-------14------------------------------14---------------------------------------------|
|-------------------------------------------------------------------------------------------------|
|-------------------------------------------------------------------------------------------------|
|-------------------------------------------------------------------------------------------------|


                                                                                ~~~~~~~~~
   E       E  E   E  E      E  E      E  E      E   E      E   E      E  E      E   E       E
|-15b17r==15--------15b17--15-15b17r=15-15b17r=15--15b17r=15--15b17r=15-15b17--15--15b17---15----|
|------------13--13------------------------------------------------------------------------------|
|------------------------------------------------------------------------------------------------|
|------------------------------------------------------------------------------------------------|
|------------------------------------------------------------------------------------------------|
|------------------------------------------------------------------------------------------------|


               ~~~~~~~~~~~~~
   E     E     E       E      E     E      E  E  E  E  E  E  E  E      E
|-15b17-15b17-15b17----------15b17--------------------17-------20b22--20\--*|
|---------------------15b17--------15b17r=15-13-15s17----17-17-------------*|
|--------------------------------------------------------------------------*|
|--------------------------------------------------------------------------*|
|--------------------------------------------------------------------------*|
|--------------------------------------------------------------------------*|


Duration Legend
---------------
W - whole; H - half; Q - quarter; E - 8th; S - 16th; T - 32nd; X - 64th; a - acciaccatura
+ - note tied to previous; . - note dotted; .. - note double dotted
Uncapitalized letters represent notes that are staccato (1/2 duration)
Irregular groupings are notated above the duration line
Duration letters will always appear directly above the note/fret number it represents the
duration for.  Duration letters with no fret number below them represent rests.  Multi-
bar rests are notated in the form Wxn, where n is the number of bars to rest for.  Low
melody durations appear below the staff

Tablature Legend
----------------
 h   - hammer-on
 p   - pull-off
 b   - bend
 pb  - pre-bend
 r   - bend release (if no number after the r, then release immediately)
 /\  - slide into or out of (from/to "nowhere")
 s   - legato slide
 S   - shift slide
  - natural harmonic
[n]  - artificial harmonic
n(n) - tapped harmonic
 ~   - vibrato
 tr  - trill
 T   - tap
 TP  - trem. picking
 PM  - palm muting
\n/  - tremolo bar dip; n = amount to dip
 \n  - tremolo bar down
 n/  - tremolo bar up
/n\  - tremolo bar inverted dip
 =   - hold bend; also acts as connecting device for hammers/pulls
   - volume swell (louder/softer)
 x   - on rhythm slash represents muted slash
 o   - on rhythm slash represents single note slash

Misc Legend
-----------
 |  - bar
||  - double bar
||o - repeat start
o|| - repeat end
*|  - double bar (ending)
 :  - bar (freetime)
 $  - Segno
 &  - Coda
Tempo markers -  = BPM(8/16=s8/s16), where s8 = swing 8ths, s16 = swing 16ths





Comments


Popular Nugent Ted tabs & chords
Kiss My Ass Bass Tabs
Fred Bear Chords
Cat Scratch Fever Tabs
Fred Bear Tabs
Fred Bear 1 Tabs
Free For All Tabs
Hey Baby 1 Tabs
Homebound Tabs
Snakeskin Cowboys Intro Tabs
Strangle Hold Tabs


Song lyrics



↑ Back to top | Tablatures and chords are parodies/interpretations of the original songs. You may use it for private study, scholarship, research or language learning purposes only
© 2014 AZChords.com Contact us | Privacy policy | DMCA | Add/correct tabs | Request tabs | Top 50 tabs