» » »

Nugent Ted, Hey Baby Bass tabs (ver.1)

Artists:  A B C D E F G H I J K L M N O P Q R S T U V W X Y Z # 

Hey Baby Bass tabs (ver.1)

Nugent Ted Tabs
 Rating:
4/5 (4 votes)
Hey Baby lessons Tabs too difficult? Try these video lessons and learn fast
                


Intro: 3X                   The 4th time into the verse
G-------------------------|----------------------|
D--------------------567--|----------------------|
A--567--567--567--567-----|-567--567--567--------|
E-----0----0----0---------|----0----0-----S7/0---|

  Verse: 2X
G----------------------|
D---------2------------|
A----------05-042---2--|
E--00 S2/4-------024-0-|


G---------2------------|
D----------05-042---2--|
A--00 S2/4-------024-0-|
E----------------------|

  Bridge:
G----------------------|
D----------------------|
A------2----12456S7/3--|
E---024--245-----------|

  Bridge into lead after second verse:
G----------------------|----------------------------------|
D----------------------|--------2-------------------------|
A------2-----12456S7/3-|----------------------------------|
E---024-0-245----------|--0-S2/4-002233445555555555555555-|

                      
G--------------------|-------------------------------|
D--------------------|-------------------------------|
A----77757----77757--|-------------------------------|
E--00-------00-------|---55555555555555555-----------|

   Bridge during the lead:          Echord              Echord
G----------------|------------------9-9-|---------------9-9-|
D----------------|------------------9-9-|---------------9-9-|
A------555-6S7/3-|--5--5-7---5--5-7-7-7-|-5--5-7-775----7-7-|
E---777----------|-7--7----7--7---------|7--7-------753-----|






G ------------------9-9-|-------------------------------|
D ------------------9-9-|-------------------------------|
A --5--5-7---5--5-7-7-7-|-5--5-7-7----------------------|
E -7--7----7--7---------|7--7-----002233445555555555555-|

G--------------------|-------------------------------|
D--------------------|-------------------------------|
A----77757----77757--|-------------------------------|
E--00-------00-------|---55555555555555555-----------|

                  Repeat of verse.
G----------------|
D----------------|
A------555-6S7/3-|
E---777----------|

  
  Outro: On last Bridge:
G-------------------------|--------------------|
D-------------------------|------2-------------|
A------2-----1245-6-S7/3--|-------05042--6S7/3-|
E---024-00245-------------|-0S2/4-------0------|


                           Ending.......
G---------------------|---------------------|----------------|
D-------2-------------|-------2-------------|----------------|
A--------05042--6S7/3-|--------05042--6S7/3-|-067-067-067----|
E--0S2/4-------0------|--0S2/4-------0------|-------------00-|
            
Submit corrections

comments powered by Disqus
↑ Back to top | Nugent Ted Bass for Hey Baby. Lyrics for acoustic guitar and electric guitar. Tablatures and chords are parodies/interpretations of the original songs. You may use it for private study, scholarship, research or language learning purposes only