» » »

Free For All Tabs (ver.1)

Artists:  A B C D E F G H I J K L M N O P Q R S T U V W X Y Z # 

Free For All Tabs (ver.1)

Nugent Ted
Rating:
0/5 (0 votes)

Hard to play? Try these video lessons and learn fast.
                Repeat:
   D#   E   E     D#  E   E
E--(6)h(7)-(7)-x-(6)h(7)-(7)-x-x-
B--(8)h(9)-(9)-x-(8)h(9)-(9)-x-x-
G---8-h-9---9--x--8-h-9---9--x-x-
D---8-h-9---9--x--8-h-9---9--x-x-
A---6-h-7---7--x--6-h-7---7--x-x-
E--(6)h(7)-(7)-x-(6)h(7)-(7)-x-x-

Then:
E---------------------
B---------------------
G---------------------
D-----------------5-6-
A-7---------5-6-7-----
E---4-5-6-7-----------

And repeat above ^^

Then repeat 2x:
   D   D   D   D   D   D   D   D   E   E
E-(5)-(5)-(5)-(5)-(5)-(5)-(5)-(5)-(7)-(7)-
B-(7)-(7)-(7)-(7)-(7)-(7)-(7)-(7)-(9)-(9)-
G--7---7---7---7---7---7---7---7---9---9--
D--7---7---7---7---7---7---7---7---9---9--
A--5---5---5---5---5---5---5---5---7---7--
E-(7)-(7)-(7)-(7)-(7)-(7)-(7)-(7)-(7)-(7)-

And then immediately:
       B   B   B   B   B
E-x-x-(7)-(7)-(7)-(7)-(7)-x-x-x-x-x-x-x-
B-x-x-(7)-(7)-(7)-(7)-(7)-x-x-x-x-x-x-x-
G-x-x-(8)-(8)-(8)-(8)-(8)-x-x-x-x-x-x-x-
D-x-x-(9)-(9)-(9)-(9)-(9)-x-x-x-x-x-x-x-
A-x-x-(9)-(9)-(9)-(9)-(9)-x-x-x-x-x-x-x-
E-x-x-(7)-(7)-(7)-(7)-(7)-x-x-x-x-x-x-x-

Then repeat beginning ^^^^

That's all I know, but it is about most of the song.
            
Hard to play? Try these video lessons and learn fast. | Correct




comments powered by Disqus
↑ Back to top | Tablatures and chords are parodies/interpretations of the original songs. You may use it for private study, scholarship, research or language learning purposes only