>
 >
Survive

Survive Guitar Tabs

Nuclear Assault - Survive chords, tabs, tablatures, lyrics

Guitar lessons | Add/correct | Request | Top 50 tabs Artists:  A B C D E F G H I J K L M N O P Q R S T U V W X Y Z 0-9

Survive Guitar Tabs – Nuclear Assault

CD, Sheet music, Poster

Do you like Survive? Share with your friends now
Tabs
NUCLEAR ASSAULT - SURVIVE
(Survive, 1988)

Key
= after note = vibrato
^ after note = heavy vibrato 
\ = slide down
/ = slide up
+ = tap
h = hammer
p = pull
n = natural harmonic
s = pinching harmonic (squeal)
* = tremolo pick
t = trill
b = bend
|-3-| = triplet


Riff 1

E ------------------------------------------------------------------------------|
B ------------------------------------------------------------------------------|
G -------------9-10---------------9-10---------------9-10---------9----10----8--|
D -------------9-10-8-------------9-10-8-------------9-10-8-------9----10----8--|
A -------------7-8 -8-------------7-8 -8-------------7-8 -8-------7----8 ----6--|
E -00-00-00-00------6-00-00-00-00------6-00-00-00-00------6-00-00---00----00----|
	       |-3--|             |-3--|             |-3--|

Riff 1A

E ---------------------------------------------------------------------------------|
B ---------------------------------------------------------------------------------|
G -------------9-10---------------9-10---------------9-10---------9----10----8--9\-|
D -------------9-10-8-------------9-10-8-------------9-10-8-------9----10----8--9\-|
A -------------7-8 -8-------------7-8 -8-------------7-8 -8-------7----8 ----6--7\-|
E -00-00-00-00------6-00-00-00-00------6-00-00-00-00------6-00-00---00----00-------|
	       |-3--|             |-3--|             |-3--|

Riff 2

E -----------------------------------------------------------------|
B -----------------------------------------------------------------|
G -7-9------10-9------7-9-10--9-----7-9------10-9------7-9-7-5-7-5-|
D -7-9------10-9------7-9-10--9-8-7-7-9------10-9------7-9-7-5-7-5-|
A -5-7------8 -7------5-7-8 --7-8-7-5-7------8 -7------5-7-5-3-5-3-|
E -----00-0------00-0-----------6-5-----00-0------00-0-------------|
		      |-3-|   |-3-|		       |-3-| |-3-|

Riff 3

E ------------------------------------------------------------------------------------------|
B ------------------------------------------------------------------------------------------|
G -4--4-4--4-4----------4--4-4--4-4-------------4--4-4--4-4----------4--4-4--4-4------------|
D -4--4-4--4-4----------4--4-4--4-4--3---3---3--4--4-4--4-4----------4--4-4--4-4-------3----|
A -2--2-2--2-2----------2--2-2--2-2--3---3---3--2--2-2--2-2----------2--2-2--2-2------------|
E -----------------------------------1---1---1------------------------------------1---------|

E ---------------------------------------------------------------------------------------------|
B ---------------------------------------------------------------------------------------------|
G -4--4-4--4-4----------4--4-4--4-4-------------4--4-4--4-4----------4--4-4--4-4---------------|
D -4--4-4--4-4----------4--4-4--4-4--3---3---3--4--4-4--4-4----------4--4-4--4-4--------2-3----|
A -2--2-2--2-2----------2--2-2--2-2--3---3---3--2--2-2--2-2----------2--2-2--2-2--2-3-5--------|
E -----------------------------------1---1---1-------------------------------------------------|

Riff 4

E -------------------------------------------------------|
B -------------------------------------------------------|
G ----------------------6--5-----------------------------|
D -2------2-------------6--5--2------2-------------8--7--|
A -2------2-------------4--3--2------2-------------8--7--|
E -0--0-0-0--0-2-3--0-0-------0--0-0-0--0-2-3--0-0-6--5--|

Riff 5

E ---------------------------------------------------------------------------------------------|
B ---------------------------------------------------------------------------------------------|
G ---------------------------------------------------------------------------------------------|
D ---------------------------------------------------------------------------------------------|
A -------------------------------------------------------------------------------------1-0-----|
E -22-22-22-22-22-22-22-22-00-00-00-00-00-00-00-00-33-33-33-33-33-33-33-33-22-22-22-22-----3-0-|

Riff 5A

E --------------------------------------------------------------------------------------|
B --------------------------------------------------------------------------------------|
G --------------------------------------------------------------------------------------|
D --------------------------------------------------------------------------------------|
A ------------------------------------------------------------------------------1-0-----|
E -22-22-22-22-22-22-22-22-00-00-00-00-00-00-00-00-33-33-33-33-33-33-33-33-2--------3-1-|

Order

Riff 1 x 4
Riff 2 x 2
Riff 3 x 1
Riff 1 x 2
Riff 2 x 2
Riff 3 x 1
Riff 1 x 2
Solo over Riff 4 x 4
Solo over Riff 5 x 3
Solo over Riff 5A x 1
Riff 1 x 2
Riff 2 x 2
Riff 3 x 1
Riff 1 x 3
Riff 1A x 1





Comments


Popular Nuclear Assault tabs & chords
F# (Wake Up) Bass Tabs
My America Bass Tabs
After The Holocaust Tabs
Critical Mass 2 Tabs
Mr. Softee Theme Tabs
New Song Tabs
New Song 1 Tabs
Rise From The Ashes Tabs
Spell Correctly Tabs
Torture Tactics Tabs


Song lyrics



↑ Back to top | Tablatures and chords are parodies/interpretations of the original songs. You may use it for private study, scholarship, research or language learning purposes only
© 2014 AZChords.com Contact us | Privacy policy | DMCA | Add/correct tabs | Request tabs | Top 50 tabs