» » »

Spell Correctly Tabs (ver.1)

Artists:  A B C D E F G H I J K L M N O P Q R S T U V W X Y Z # 

Spell Correctly Tabs (ver.1)

Nuclear Assault
Rating:
0/5 (0 votes)

Hard to play? Try these video lessons and learn fast.
                Tuned down a half step

Start w/
Ab-2--2--6--5--------2--2--6--5---
Eb-0--0--4--3--------0--0--4--3---

Riff 1 8x then end w/ A5 chord
Ab-8/7/6--5-------4---------12/11/12/15/14--
Eb-6/5/4--3--0-0--2--0-0----10//9/10/13/12--

Riff 2 4x
Db--------------4----3-----------------------4----3-3-3-3-3-3---
Ab-2-------4/5--2----1--5--3----2-------4/5--2----1-1-1-1-1-1---
Eb-0--0-0--2/3----------3--1----0--0-0--2/3---------------------

Riff 3 4x
Db------------------3-------------3-------------3----------------3---
Ab------3-----------1-------------1-------------1--8/7-----------1---
Eb-0-0--1--0-0-0-1-----0-0-0-0-1-----0-0-0-0-1-----6/5----0-0-1------

Riff 2 4x
Riff 3 4x
Riff 2 4x
Riff 1 8x
Riff 3 4x
Riff 2 4x
Riff 1 8x
            
Hard to play? Try these video lessons and learn fast. | Correct




comments powered by Disqus
↑ Back to top | Tablatures and chords are parodies/interpretations of the original songs. You may use it for private study, scholarship, research or language learning purposes only