» » »

Nuclear Assault, Search And Seizure Tabs (ver.1)

Artists:  A B C D E F G H I J K L M N O P Q R S T U V W X Y Z # 

Search And Seizure Tabs (ver.1)

Nuclear Assault Tabs
 Rating:
4/5 (4 votes)
Search And Seizure lessons Tabs too difficult? Try these video lessons and learn fast
1
                -------------------------------------------------------------------------------
-------------------------------------------------------------------------------

Tuning: Half Step Down

Intro
e|---------------------------------------------------------------------------|
B|---------------------------------------------------------------------------|
G|---------------------------------------------------------------------------|
D|9--8--7--------------------------------------------------------------------|
A|7--6--5--10-7--5-----------------------------------------------------------|
E|---------8--5--3-----------------------------------------------------------|

Repeat these two bars twice
e|---------------------------------------------------------------------------|
B|---------------------------------------------------------------------------|
G|---------------------------------------------------------------------------|
D|----------7------------9------------10-------------------------------------|
A|----------5------------7------------8-------------3--3---------------------|
E|000000000----000000000----000000000-----000000000-1--1---------------------|
  *********    *********    *********     *********

e|---------------------------------------------------------------------------|
B|---------------------------------------------------------------------------|
G|---------------------------------------------------------------------------|
D|----------7------------9------------10------------3------------------------|
A|----------5------------7------------8-------------1--3---------------------|
E|000000000----000000000----000000000-----000000000----1---------------------|
  *********    *********    *********     *********

e|---------------------------------------------------------------------------|
B|---------------------------------------------------------------------------|
G|----------7------------9------------10-------------------------------------|
D|----------7------------9------------10-------------------------------------|
A|--------------------------------------------------3--3---------------------|
E|000000000-----------------------------------------1--1---------------------|
  *********       

e|---------------------------------------------------------------------------|
B|---------------------------------------------------------------------------|
G|---------------------------------------------------------------------------|
D|----------7------------9------------10------------3------------------------|
A|----------5------------7------------8-------------1--3---------------------|
E|000000000----000000000----000000000-----000000000----1---------------------|
  *********    *********    *********     *********

Verse :29 (Repeat these two bars twice)
e|---------------------------------------------------------------------------|
B|---------------------------------------------------------------------------|
G|---------------------------------------------------------------------------|
D|------------------------------------------------3-2-0---0-3----------------|
A|0h2-----0h2-----0h2-----0h2-----0h2-----0h2-----3-2-0-3-0-3----------------|
E|0h0-000-0h0-000-0h0-000-0h0-000-0h0-000-0h0-000-------3--------------------|
      ***     ***     ***     ***     ***     ***

e|---------------------------------------------------------------------------|
B|---------------------------------------------------------------------------|
G|---------------------------------------------------------------------------|
D|------------------------------------------------3-----3--------------------|
A|0h2-----0h2-----0h2-----0h2-----0h2-----0h2-----1---3-1--------------------|
E|0h0-000-0h0-000-0h0-000-0h0-000-0h0-000-0h0-000-----1----------------------|
      ***     ***     ***     ***     ***     ***

Chorus :47
e|---------------------------------------------------------------------------|
B|---------------------------------------------------------------------------|
G|---------------------------------------------------------------------------|
D|----------7------------9------------10-------------------------------------|
A|----------5------------7------------8-------------3--3---------------------|
E|000000000----000000000----000000000-----000000000-1--1---------------------|
  *********    *********    *********     *********

e|---------------------------------------------------------------------------|
B|---------------------------------------------------------------------------|
G|---------------------------------------------------------------------------|
D|----------7------------9------------10------------3------------------------|
A|----------5------------7------------8-------------1--3---------------------|
E|000000000----000000000----000000000-----000000000----1---------------------|
  *********    *********    *********     *********

e|---------------------------------------------------------------------------|
B|---------------------------------------------------------------------------|
G|----------7------------9------------10-------------------------------------|
D|----------7------------9------------10-------------------------------------|
A|--------------------------------------------------3--3---------------------|
E|000000000-----------------------------------------1--1---------------------|
  *********       

e|---------------------------------------------------------------------------|
B|---------------------------------------------------------------------------|
G|---------------------------------------------------------------------------|
D|----------7------------9------------10------------3------------------------|
A|----------5------------7------------8-------------1--3---------------------|
E|000000000----000000000----000000000-----000000000----1---------------------|
  *********    *********    *********     *********

Verse 2 1:04 (Repeat these two bars twice)
e|---------------------------------------------------------------------------|
B|---------------------------------------------------------------------------|
G|---------------------------------------------------------------------------|
D|------------------------------------------------3-2-0---0-3----------------|
A|0h2-----0h2-----0h2-----0h2-----0h2-----0h2-----3-2-0-3-0-3----------------|
E|0h0-000-0h0-000-0h0-000-0h0-000-0h0-000-0h0-000-------3--------------------|
      ***     ***     ***     ***     ***     ***

e|---------------------------------------------------------------------------|
B|---------------------------------------------------------------------------|
G|---------------------------------------------------------------------------|
D|------------------------------------------------3-----3--------------------|
A|0h2-----0h2-----0h2-----0h2-----0h2-----0h2-----1---3-1--------------------|
E|0h0-000-0h0-000-0h0-000-0h0-000-0h0-000-0h0-000-----1----------------------|
      ***     ***     ***     ***     ***     ***

Chorus 1:22
e|---------------------------------------------------------------------------|
B|---------------------------------------------------------------------------|
G|---------------------------------------------------------------------------|
D|----------7------------9------------10-------------------------------------|
A|----------5------------7------------8-------------3--3---------------------|
E|000000000----000000000----000000000-----000000000-1--1---------------------|
  *********    *********    *********     *********

e|---------------------------------------------------------------------------|
B|---------------------------------------------------------------------------|
G|---------------------------------------------------------------------------|
D|----------7------------9------------10------------3------------------------|
A|----------5------------7------------8-------------1--3---------------------|
E|000000000----000000000----000000000-----000000000----1---------------------|
  *********    *********    *********     *********

e|---------------------------------------------------------------------------|
B|---------------------------------------------------------------------------|
G|----------7------------9------------10-------------------------------------|
D|----------7------------9------------10-------------------------------------|
A|--------------------------------------------------3--3---------------------|
E|000000000-----------------------------------------1--1---------------------|
  *********       

e|---------------------------------------------------------------------------|
B|---------------------------------------------------------------------------|
G|---------------------------------------------------------------------------|
D|----------7------------9------------10------------3------------------------|
A|----------5------------7------------8-------------1--3---------------------|
E|000000000----000000000----000000000-----000000000----1---------------------|
  *********    *********    *********     *********

e|---------------------------------------------------------------------------|
B|---------------------------------------------------------------------------|
G|---------------------------------------------------------------------------|
D|---------------------------------------------------------------------------|
A|2--------------------------------------------------------------------------|
E|0--------------------------------------------------------------------------|

Break 1:40                                                                x10
e|---------------------------------------------------------------------------|
B|---------------------------------------------------------------------------|
G|4-----4---------2-3--------------------------------------------------------|
D|2-----2---------2-3--------------------------------------------------------|
A|----------4/5---------2----------------------------------------------------|
E|--0-0-----2/3---------0----------------------------------------------------|
    * *

e|---------------------------------------------------------------------------|
B|---------------------------------------------------------------------------|
G|---------------------------------------------------------------------------|
D|----------------------2---4---5-------------------------4-4-2--------------|
A|4-4-4-4-4-4---4-4-4---0---2---3---4-4-4-4-4-4---4-4-4---0h2-0--------------|
E|0h2-2-2h0-2---0-2-2---------------0h2-2-2h0-2---0-2-2----------------------|

e|---------------------------------------------------------------------------|
B|---------------------------------------------------------------------------|
G|---------------------------------------------------------------------------|
D|----------------------2---4---5-------------------------2---4--------------|
A|4-4-4-4-4-4---4-4-4---0---2---3---4-4-4-4-4-4---4-4-4---0---2--------------|
E|0h2-2-2h0-2---0-2-2---------------0h2-2-2h0-2---0-2-2----------------------|

                                                                           x8
e|---------------------------------------------------------------------------|
B|---------------------------------------------------------------------------|
G|4-----4---------2-3--------------------------------------------------------|
D|2-----2---------2-3--------------------------------------------------------|
A|----------4/5---------2----------------------------------------------------|
E|--0-0-----2/3---------0----------------------------------------------------|
    * *
                                                                           x2
e|---------------------------------------------------------------------------|
B|---------------------------------------------------------------------------|
G|---------------------------------------------------------------------------|
D|----------------------2---4---5-------------------------2---4--------------|
A|4-4-4-4-4-4---4-4-4---0---2---3---4-4-4-4-4-4---4-4-4---0---2--------------|
E|0h2-2-2h0-2---0-2-2---------------0h2-2-2h0-2---0-2-2----------------------|

                                                                           x4
e|---------------------------------------------------------------------------|
B|---------------------------------------------------------------------------|
G|4-----4---------2-3--------------------------------------------------------|
D|2-----2---------2-3--------------------------------------------------------|
A|----------4/5---------2----------------------------------------------------|
E|--0-0-----2/3---------0----------------------------------------------------|
    * *

Intro Riff 2:51                                        
e|---------------------------------------------------------------------------|
B|---------------------------------------------------------------------------|
G|---------------------------------------------------------------------------|
D|----------7------------9------------10-------------------------------------|
A|----------5------------7------------8-------------3--3---------------------|
E|000000000----000000000----000000000-----000000000-1--1---------------------|
  *********    *********    *********     *********

e|---------------------------------------------------------------------------|
B|---------------------------------------------------------------------------|
G|---------------------------------------------------------------------------|
D|----------7------------9------------10------------3------------------------|
A|----------5------------7------------8-------------1--3---------------------|
E|000000000----000000000----000000000-----000000000----1---------------------|
  *********    *********    *********     *********

e|---------------------------------------------------------------------------|
B|---------------------------------------------------------------------------|
G|---------------------------------------------------------------------------|
D|----------7------------9------------10-------------------------------------|
A|----------5------------7------------8-------------3--3---------------------|
E|000000000----000000000----000000000-----000000000-1--1---------------------|
  *********    *********    *********     *********

e|---------------------------------------------------------------------------|
B|---------------------------------------------------------------------------|
G|---------------------------------------------------------------------------|
D|----------7------------9------------10------------3------------------------|
A|----------5------------7------------8-------------1--3---------------------|
E|000000000----000000000----000000000-----000000000----1---------------------|
  *********    *********    *********     *********

Verse 3 3:09 (Repeat these two bars twice)
e|---------------------------------------------------------------------------|
B|---------------------------------------------------------------------------|
G|---------------------------------------------------------------------------|
D|------------------------------------------------3-2-0---0-3----------------|
A|0h2-----0h2-----0h2-----0h2-----0h2-----0h2-----3-2-0-3-0-3----------------|
E|0h0-000-0h0-000-0h0-000-0h0-000-0h0-000-0h0-000-------3--------------------|
      ***     ***     ***     ***     ***     ***

e|---------------------------------------------------------------------------|
B|---------------------------------------------------------------------------|
G|---------------------------------------------------------------------------|
D|------------------------------------------------3-----3--------------------|
A|0h2-----0h2-----0h2-----0h2-----0h2-----0h2-----1---3-1--------------------|
E|0h0-000-0h0-000-0h0-000-0h0-000-0h0-000-0h0-000-----1----------------------|
      ***     ***     ***     ***     ***     ***

Chorus 3:27 (Repeat these four bars twice)
e|---------------------------------------------------------------------------|
B|---------------------------------------------------------------------------|
G|---------------------------------------------------------------------------|
D|----------7------------9------------10-------------------------------------|
A|----------5------------7------------8-------------3--3---------------------|
E|000000000----000000000----000000000-----000000000-1--1---------------------|
  *********    *********    *********     *********

e|---------------------------------------------------------------------------|
B|---------------------------------------------------------------------------|
G|---------------------------------------------------------------------------|
D|----------7------------9------------10------------3------------------------|
A|----------5------------7------------8-------------1--3---------------------|
E|000000000----000000000----000000000-----000000000----1---------------------|
  *********    *********    *********     *********

e|---------------------------------------------------------------------------|
B|---------------------------------------------------------------------------|
G|----------7------------9------------10-------------------------------------|
D|----------7------------9------------10-------------------------------------|
A|--------------------------------------------------3--3---------------------|
E|000000000-----------------------------------------1--1---------------------|
  *********       

e|---------------------------------------------------------------------------|
B|---------------------------------------------------------------------------|
G|---------------------------------------------------------------------------|
D|----------7------------9------------10------------3------------------------|
A|----------5------------7------------8-------------1--3---------------------|
E|000000000----000000000----000000000-----000000000----1---------------------|
  *********    *********    *********     *********

End 4:01
e|---------------------------------------------------------------------------|
B|---------------------------------------------------------------------------|
G|---------------------------------------------------------------------------|
D|9--8--7-----------9/-------------------------------------------------------|
A|7--6--5--10-7--5--7/-------------------------------------------------------|
E|---------8--5--3-----------------------------------------------------------|

************************************

| /   slide up
| \   slide down
| h   hammer-on
| p   pull-off
| ~   vibrato
| +   harmonic
| x   Mute note
| b   Bend
| pb  Pre-bend
| br  Bend release
| pbr Pre-bend release
| brb Bend release bend

************************************
            
Submit corrections

comments powered by Disqus
↑ Back to top | Nuclear Assault Tabs for Search And Seizure. Lyrics for acoustic guitar and electric guitar. 1 Tablatures and chords are parodies/interpretations of the original songs. You may use it for private study, scholarship, research or language learning purposes only