» » »

Hang The Pope.. Tabs (ver.1)

Artists:  A B C D E F G H I J K L M N O P Q R S T U V W X Y Z # 

Hang The Pope.. Tabs (ver.1)

Nuclear Assault
Rating:
0/5 (0 votes)

Hard to play? Try these video lessons and learn fast.
                -------------------------------------------------------------------------------
Hang The Pope - Nuclear Assault
-------------------------------------------------------------------------------

Tuning: Standard

Intro/ Verse                                                               x4
e|---------------------------------------------------------------------------|
B|---------------------------------------------------------------------------|
G|---------------------------------------------------------------------------|
D|---------------------------------------------------------------------------|
A|7-5-7-8-7-5-7-8-7-5-7-8-7-5-3-5--------------------------------------------|
E|5-3-5-6-5-3-5-6-5-3-5-6-5-3-1-3--------------------------------------------|

Chorus :18                                                                 x2
e|---------------------------------------------------------------------------|
B|---------------------------------------------------------------------------|
G|---------------------------------------------------------------------------|
D|7-----5---8---7-----3---5--------------------------------------------------|
A|7-----5---8---7-----3---5--------------------------------------------------|
E|5-----3---6---5-----1---3--------------------------------------------------|

Verse 2 :23                                                                x2
e|---------------------------------------------------------------------------|
B|---------------------------------------------------------------------------|
G|---------------------------------------------------------------------------|
D|---------------------------------------------------------------------------|
A|7-5-7-8-7-5-7-8-7-5-7-8-7-5-3-5--------------------------------------------|
E|5-3-5-6-5-3-5-6-5-3-5-6-5-3-1-3--------------------------------------------|

Chorus :29                                                                 x2
e|---------------------------------------------------------------------------|
B|---------------------------------------------------------------------------|
G|---------------------------------------------------------------------------|
D|7-----5---8---7-----3---5--------------------------------------------------|
A|7-----5---8---7-----3---5--------------------------------------------------|
E|5-----3---6---5-----1---3--------------------------------------------------|

Verse 3 :35                                                                
e|---------------------------------------------------------------------------|
B|---------------------------------------------------------------------------|
G|---------------------------------------------------------------------------|
D|---------------------------------------------------------------------------|
A|7-5-7-8-7-5-7-8-7-5-7-8-7-5-3-5--------------------------------------------|
E|5-3-5-6-5-3-5-6-5-3-5-6-5-3-1-3--------------------------------------------|

End :38
e|---------------------------------------------------------------------------|
B|---------------------------------------------------------------------------|
G|---------------------------------------------------------------------------|
D|7--------------------------------------------------------------------------|
A|7--------------------------------------------------------------------------|
E|5--------------------------------------------------------------------------|

************************************

| /   slide up
| \   slide down
| h   hammer-on
| p   pull-off
| ~   vibrato
| +   harmonic
| x   Mute note
| b   Bend
| pb  Pre-bend
| br  Bend release
| pbr Pre-bend release
| brb Bend release bend

************************************
            
Hard to play? Try these video lessons and learn fast. | Correct




comments powered by Disqus
↑ Back to top | Tablatures and chords are parodies/interpretations of the original songs. You may use it for private study, scholarship, research or language learning purposes only